Oops, an error
Loading. Please wait.

Dulce Y Veloz Tab

38 views 1 this week
no commentswrite comment
1 2 3 4 5
3 more votes to show rating
add to favorites
launch autoscroll
font size
0
reset
how to read this tab
guitar tuner
×
Best way to learn
"Dulce Y Veloz"
Autoscroll
slow
fast
+/-
esc
set tempo
stop
Bueno,estaba tab esta muy bien hecha , la colaboracion anterior
esta mal en algunos punteos y acordes en mal tiempo.
bien,toquenla y maten el rato...


NOTA:

e ---0---0---0---0---
b -----0-------2-----
g -1--------2--------    (pueden tocar este arpegio en las estrofa 1 y 2 si desean,ya que
d -------------------        la guitarra lo toca asi)  
a -------------------
e -------------------
   E        A


INTRO  :

E   A (x3)   E    

ESTROFA 1 :
 E   A                      E           A
 Él... tiene una loca ambición que cumplir
                    E           A                 E
 tras su mirada perdida en el juego de su melancolía

 E   A                    E        A                    E
 Él... viste de equivocación en casual pelea con la ciudad 
        A                         E
 si lo ves te arrastra a la realidad


PRE CORO:

 F#   E                 F# E                   F#  E
 ellos...conocen el secretoooo del dejarse llevar
                   F# 
 saben salir a bailar

CORO :
 E          A                     E        A
 Dulce y veloz como las aves al vuelo y feroz
                     E        A                         E  
 como las fieras en celo y voraz cuando estás loca por mí


e ---7--5--4-5-4-4h5p4--------------------------
b ---------------------7--5---------------------
g ----------------------------------------------
d ----------------------------------------------
a ----------------------------------------------
e ----------------------------------------------

 E            A                      E        A
 agria y en sueños al seguirte esos pasos pequeños
                   E       A                        E  
 y me esquivas y quedo sin ellos si estoy loco por ti


(el bajo)

g ----------------------------------------------
d ----------------------------------------------
a -2--------------------------------------------
e ---5--4-5-4-4h5p5-2-0-------------------------


ESTROFA 2 : tocar igual que la estrofa 1 con los mismos acordes y el arpegio

 
 Ella..tiene una sombra de miedo al mirar

 que vuela en fuga algún sueño precoz que llenó su soledad

 ella...no tiene miedo de nada y regala

 en cada pecho una flor plin, plin, plin...

 para entregar a un amor

CORO :
 E          A                     E        A
 Dulce y veloz como las aves al vuelo y feroz
                     E        A                         E  
 como las fieras en celo y voraz cuando estás loca por mí

e ----------------------------------------------
b ----------------------------------------------
g --2f--(2f)------2f--(2f)----2f----------------
d ----------------------------------------------
a ----------------------------------------------
e ----------------------------------------------

 E            A                      E        A
 agria y en sueños al seguirte esos pasos pequeños
                   E       A                        E   (E)
 y me esquivas y quedo sin ellos si estoy loco por ti


e ----------------------------------------------
b ----------------------------------------------
g ----------------------------------------------
d ----------------------------------------------
a ---2-0-------0-2------------------------------
e -------2-0------------------------------------


INTERLUDE:

  E  A (x3)   E .....tocar estos acordes asi como el intro y de ahi el tab de abajo.
                        (junto con la armónica)


e -----7-7--5-5-5-5-5-5-5-5-----
b -2-s-9-9--5-5-5-5-5-5-5-5-----
g -2-s-9-9--6-6-6-6-6-6-6-6-----    
d ----------7-7-7-7-7-7-7-7-----
a ----------7-7-7-7-7-7-7-7-----
e ------------------------------

e -----7-7--5-5-5-5-5-5-5-5-----
b -2-s-9-9--5-5-5-5-5-5-5-5-----
g -2-s-9-9--6-6-6-6-6-6-6-6-----    
d ----------7-7-7-7-7-7-7-7-----
a ----------7-7-7-7-7-7-7-7-----
e ------------------------------

e -----7-7--5-5-5-5-5-5-5-5-----
b -2-s-9-9--5-5-5-5-5-5-5-5-----
g -2-s-9-9--6-6-6-6-6-6-6-6-----    
d ----------7-7-7-7-7-7-7-7-----
a ----------7-7-7-7-7-7-7-7-----
e ------------------------------

e --0----(0)--------------------
b --0----(0)--------------------
g --1----(1)--------------------
d --2----(2)--------------------
a --2----(2)--------------------
e --0----(0)--------------------


PRE CORO :
F#   E             F# E                   F#  E            F#
  ahhh aahhhhh   ahhhhh ahhhhhh     ahhhhhh ahhhhhh...ahhhhh
                   
 
ESTROFA 3 :

F#       E
Cuando veas dos mundos 

F#          E             F#
no te pares a mirar que sean

          E     
esclavos del alcohol

   F#      G#m  A                B
ya sabes, si   te nombro es por mí,

    A     G#m       F#     
tu propio nombre y si te gimo....


CORO :
 E          A                     E        A
 Dulce y veloz como las aves al vuelo y feroz
                     E        A                         E  
 como las fieras en celo y voraz cuando estás loca por mí


 E            A                      E        A
 agria y en sueños al seguirte esos pasos pequeños
                   E       A                        E   (E)
 y me esquivas y quedo sin ellos si estoy loco por ti


 B    A    G#m    F#    E
 ohh ohhh  ohhhh ohh...                    .......FIN


comentarios ,peticiones,interes en formar bandas,etc...mi mail es bracho_rhcp@
Suggest correction
Give kudos to tab author, rate the tab!
1 2 3 4 5
comments
print report bad tab
guest
You may want to rate the tab now too:
select rating
Wanna post a correction for this tab? Suggest correction