Oops, an error
Loading. Please wait.

El Dolor Del Amor Chords

14 views 1 this week
no commentswrite comment
1 2 3 4 5
3 more votes to show rating
add to favorites
launch autoscroll
font size
0
reset
transpose
0
reset
display chords
guitar tuner
×
Best way to learn
"El Dolor Del Amor"
Autoscroll
slow
fast
+/-
esc
set tempo
stop
INTRO: Am X 8

  Am              Am                  Am
e|----------|-----------0--|------------0-------|
B|----------|---------1----|----------1---1-----|
G|----------|-2-2-2-2------|--2-2-2-2-------2---|
D|---2-0-2--|--------------|--------------------|
A|----------|--------------|--------------------|
E|----------|--------------|--------------------|


Am
Otra vez...
Am                                  E
Te despiertas con el llanto de un oscuro amanecer...
       G            Am
Sin creer..., Que se fue...

Am
Y otra vez...
Am                                           E
Te preguntas que hago entonces en el mundo si es tan cruel...
      G         Am
La verdad..., no la vez


Dm            Am       E         Am  A
Volverás a sentir el calor del amor...
Dm            Am       E              Am
Volverás a sentir el dolor... , del amor


Am E G Am


Am
De una vez...
Am                               E
Cúrate esa pena que te apena, o mátame...
    G              Am
Solo así..., entenderé

Am
O de una vez...
Am                              E
Rompe esa cadena que condenas y mírame...
     G            Am
Solo así..., te diré

Dm            Am       E         Am  A
Volverás a sentir el calor del amor...
Dm            Am       E              Am
Volverás a sentir el dolor... , del amor

Am ...

  Am                  Am                     Am
e|-----------0--|------------0-------|-----------0--|
B|---------1----|----------1---1-----|---------1----|
G|-2-2-2-2------|--2-2-2-2-------2---|-2-2-2-2------|
D|--------------|--------------------|--------------|
A|--------------|--------------------|--------------|
E|--------------|--------------------|--------------|
Suggest correction
Give kudos to tab author, rate the tab!
1 2 3 4 5
comments
print report bad tab
guest
You may want to rate the tab now too:
select rating
Wanna post a correction for this tab? Suggest correction