Oops, an error
Loading. Please wait.

El Rumbo Del Mar Chords

version 2
version 2

Whole song

4 views 1 this week
no commentswrite comment
1 2 3 4 5
3 more votes to show rating
add to favorites
launch autoscroll
font size
0
reset
transpose
0
reset
simplify chords
display chords
guitar tuner
Autoscroll
slow
fast
+/-
esc
set tempo
stop
Strumming
There is no strumming pattern for this song yet. and get +5 IQ
Esta tab esta mejor que la anterior que tiene errores.
tambien los punteos.
la 5ta entre parantesis significa que solo se rasguea una vez
y se hace un cambio rapido a la siguiente 5ta.
INTRO : 

E5 B5 C#5 B5 A5 F#5 B5 A5

E5 B5 C#5 A5 F#5 Eb5 B5


E5              B5               C#5 
 Quiero ver las olas claras del mar

                B5              A5     (G#5)      
 quiero llegar lejos de una ciudad ,aqui
 
    F#5              B5      A5
 estar viviendo a solas

E5              B5              C#5
 quiero ver tu cara en una cancion

                G#5               A5     (G#5)
 quiero ver tu rostro en otra vision ya si 

    F#5         B5                E5 B5 C#5 A5 F#5 Eb5 B5
 vivir sobre la olas...con rumbo sur


E5        B5       C#5
 Labio a labio tu luz

         B5         A5      (G#5)
 gota a gota un sendero azul

      F#5          B5      A5
 nos va dejando a solas

E5        B5       C#5
 Labio a labio tu luz

         G#        A5     (G#5)
 gota a gota un angel azul

     F#5           B5 
 te vas volviendo toda


PRE CORO :


F#5    B5              E5
 Esta tarde muere el mar 

e -(0)--0-4-5-4-2-4-----------
b ----------------------------
g ----------------------------
d ----------------------------
a ----------------------------
e ----------------------------

F#5      B5              E5
 voy buscando el mas alla

e -(0)--0-4-5-4-2-4-----------
b ----------------------------
g ----------------------------
d ----------------------------
a ----------------------------
e ----------------------------

A5       (G#5) F#5    B5
  yo y tu aaamooor a solas


CORO :

A5  E5   B5        A5
   taaantoo te tuviera

    E5   B5         E5              A5        B5 
   taaantoo te quisiera al golpe de un atardecer

A5  E5   B5        A5
   taaantoo te tuviera 
   E5    B5         E5              A5        B5
   taaantoo que pudiera al golpe de una tarde emprender un viaje al sol de tu amor


E5 B5 C#5 B5 A5 F#5 B5 A5

E5 B5 C#5 A5 F#5 Eb5 B5


E5        B5       C#5
 Labio a labio tu luz

         B5         A5      (G#5)
 gota a gota un sendero azul

      F#5          B5      A5
 nos va dejando a solas

E5        B5       C#5
 Labio a labio tu luz

         G#        A5     (G#5)
 gota a gota un angel azul

     F#5           B5 
 te vas volviendo toda


PRE CORO :

F#5    B5              E5
 esta noche muere el mar

e -(0)--0-4-5-4-2-4-----------
b ----------------------------
g ----------------------------
d ----------------------------
a ----------------------------
e ----------------------------

F#5      B5             E5 
 voy buscando el mas alla

e -(0)--0-4-5-4-2-4-----------
b ----------------------------
g ----------------------------
d ----------------------------
a ----------------------------
e ----------------------------

A5    (G#5) F#5      B5
 de tu aaaamooor la sombra


CORO :

A5  E5   B5        A5
   taaantoo te tuviera

    E5   B5         E5              A5        B5 
   taaantoo te quisiera al golpe de un atardecer

A5  E5   B5        A5
   taaantoo te tuviera 
   E5    B5         E5              A5        B5
   taaantoo que pudiera al golpe de una tarde emprender un 
viaje al sol de tu amor


E5 B5 C#5 A5 F#5 Eb5 B5


e -----------------------
b -----------------------
g -----------------------    (x2)
d -----------------------
a --7--9-9-9-9-9-9-9-9---
e --5--7-7-7-7-7-7-7-7---


e ------------------------
b ------------------------
g ------------------------
d ------------------------
a --7-9-(9)-------(9)-----
e --5-7-(7)-------(7)-----    ...FIN


Comentarios,peticiones,interes en formar bandas,etc......
bracho_rhcp@
Suggest correction
Give kudos to tab author, rate the tab!
1 2 3 4 5
comments
print report bad tab
guest
Wanna post a correction for this tab? Suggest correction