Oops, an error
Loading. Please wait.

El Tiempo No Pasa En Vano Tab

31 views 1 this week
no commentswrite comment
1 2 3 4 5
3 more votes to show rating
add to favorites
×
Save as Personal and add changes to this tab that will be seen only by you. Learn more ›
launch autoscroll
font size
0
reset
how to read this tab
guitar tuner
Autoscroll
slow
fast
+/-
esc
set tempo
stop
El tiempo no pasa en vano


Intro : F#-C#-A#m-B-C#-F#-A#m

e ----------------------------------------
b ----------------------------------------
g -3-4-3--3-4-3--3-4-3-4-4s(6)-4-3-4-3----
d -------------------------------------4--
a ----------------------------------------
e ---------------------------------------


G#m       C#                F#
 25 años ya  de tu primer amor
                  A#m                 G#m
el miedo y la pasión te han olvidado ya
           C#                  F#
son 18 años ya de tu primer dolor
              A#m              G#m
tu vida se secó y dura se volvió
           C#                    F#
son 14 años ya...pudiste comprender
                       A#m
que no hay que comprender
              G#m
y tan solo mirar
                  C#             F#
que nada ya es igual y todo es peor
                  A#m             B
que siempre tu verás la muerte pasar

             C#
 ya no eres tu
F#             A#m
 yo ya no soy yo
B             C#               F#
 el tiempó vagó por calles y plazas

e -----------------
b -----------------
g -----------------
d -1---------------
a ----4--1--2------
e -----------------

B             C#
 tu , mi soledad
F#             A#m
 yo, tu perdición
B               C#         G#m      A#m
 son diez años ya sin tu amoooooooooor
B             C#
 tu , mi soledad


F#-C#-A#m-B-C#-F#-A#m

e ----------------------------------------
b ----------------------------------------
g -3-4-3--3-4-3--3-4-3-4-4s(6)-4-3-4-3----
d -------------------------------------4--
a ----------------------------------------
e ----------------------------------------


G#m     C#                 F#
 25 años ya de tu primer amor
                A#m               G#m
 tu vida deshechó por tu inseguridad
            C#                  F#
 son 18 años ya de tu primer dolor
                  A#m                 G#m
 en vano por su amor que no te duele más
            C#                   F#
 son 14 años ya, pudiste comprender
                    A#m
 que es un cuento real
                 G#m
 miseria y ambición
                 C#             F#
 y nada ya es igual y todo es peor
               A#m             B
 de lado tu verás la suerte pasar


             C#
 ya no eres tu
F#             A#m
 yo ya no soy yo
B             C#               F#
 el tiempó vagó por calles y plazas

e -----------------
b -----------------
g -----------------
d -1---------------
a ----4--1--2------
e -----------------

B             C#
 tu , mi soledad
F#             A#m
 yo, tu perdición
B               C#         G#m      A#m
 son diez años ya sin tu amoooooooooor
B             C#
 tu , mi soledad


e ----------------------------------------------------------------------------------------
b ----------------------------------------------------------------------------------------
g ----------------------------------------------------------------------------------------
d --8-9-8--8-9-8--8-9-8--9-9s(11)-9-8-9-8------------9s(4)--9-8-8--9-8-8--9-8-8--9-8-8-9--
a ----------------------------------------9-11-9----9-------9-9-9--9-9-9--9-9-9--9-9-9-9--
e -----------------------------------------------11---------------------------------------


e ----------------------------------------------------------------------------------------
b ----------------------------------------------------------------------------------------
g ----------------------------------------------------------------------------------------
d -9s(11)s(9)-8------8-9-8-----9-8-8--9-8-8--9-8-8--9-8-8-9--8--(8)h(9)p(8)---8h(9)p(8)---
d --------------9h11--------9--9-9-9--9-9-9--9-9-9--9-9-9-9-----------------9-----------9-
e ----------------------------------------------------------------------------------------


e ---------------------------------------------------------------------------------------------
b ---------------------------------------------------------------------------------------------
g ---------------------------------------------------------------------------------------------
d -8h(9)p(8)-----11-(11)-9s(11)--9-8--9s(11)s(9)-8--9s(11)s(9)-8--9s(11)s(9)-8--9s(11)s(9)-8---
a -----------9---------------------------------------------------------------------------------
e ---------------------------------------------------------------------------------------------


e -------------------------------------------------------------------------------------
b --------------------------------11h(12)p(11)------11h(12)p(11)-----11h(12)p(11)------
g ---------------------------------------------11----------------11---------------11---
d -9-8-8--9-8-8--9-8-8--9-8-8-9--------------------------------------------------------
a -9-9-9--9-9-9--9-9-9--9-9-9-9--------------------------------------------------------
e -------------------------------------------------------------------------------------


e ----------------------------------------------------------------------------------
b --------------------------------12s(14)s(12)-11---12s(14)s(12)-11-----------------
g ----------------------------------------------------------------------------------
d -9-8-8--9-8-8--9-8-8--9-8-8-9-----------------------------------------------------
a -9-9-9--9-9-9--9-9-9--9-9-9-9--------------------------------------9s(11)s(9)--8--
e ----------------------------------------------------------------------------------


e -----------------               e -14s(16)s(14)-14--14s(16)s(14)-14--14s(16)s(14)-14--
b -----------------               b ----------------------------------------------------
g -----------------      .......  g ----------------------------------------------------
d -9-8-8--9-8-8----               d ----------------------------------------------------
a -9-9-9--9-9-9----               a ----------------------------------------------------
e -----------------               e ----------------------------------------------------


e -14s(16)s(14)--14----
b ---------------------
g --------------------- ...........FIN
d ---------------------
a ---------------------
e ---------------------


Comentarios,peticiones,interes en formar bandas, etc...(lima)...bracho_rhcp@
Suggest correction
Give kudos to tab author, rate the tab!
1 2 3 4 5
comments
print report bad tab
guest
You may want to rate the tab now too:
select rating
Wanna post a correction for this tab? Suggest correction