Oops, an error
Loading. Please wait.

Entre Los Arboles Tab

version 1
version 1

Whole song

67 views 1 this week
no commentswrite comment
1 2 3 4 5
3 more votes to show rating
add to favorites
×
Save as Personal and add changes to this tab that will be seen only by you. Learn more ›
×
You can save this tab as Personal to edit and correct it or add notes. All changes will be seen only by you. Learn more »
save as personal
new!
launch autoscroll
font size
0
reset
how to read this tab
guitar tuner
Autoscroll
slow
fast
+/-
esc
set tempo
stop
La introdución de 'Entre los árboles' utiliza 
dos guitarras.

1.-LA PRIMERA GUITARRA HACE:


(El siguiente punteo se te va hacer más facil si 
lo haces presionando:)

([ch]A posicion de C[/ch])

|-0---0---0---0--|  
|--1---1---1---1-|
|---0---0---0---0|    No estoy seguro cuantas veces son 
|----------------|    en cada posición
|----------------|
|----------------|

(despues pasa a:
[ch]A posición Am[/ch])

|-0---0---0---0--|  
|--1---1---1---1-|
|---2---2---2---2|
|----------------|
|----------------|
|----------------|
 
(luego
la posición de F)

|-1---1---1---1--|  
|--1---1---1---1-|
|---2---2---2---2|
|----------------|
|----------------|
|----------------|

(por ultimo
[ch]A posición de G[/ch])

|-3---3---3---3--|  
|--3---3---3---3-|
|---0---0---0---0|
|----------------|
|----------------|
|----------------|

2.-MIENTRAS LA SEGUNDA GUITARRA HACE:

|-----1----1--|  
|--2-4--2-4---|
|-------------|
|-------------|
|-------------|
|-------------|


(lo que viene después de 22 y 44 es rapido)

|22-2-3-4-3-2------44-4-5-6-666|
|-------------4-2--------------|
|------------------------------|
|------------------------------|
|------------------------------|
|------------------------------|

3.-ACA TERMINA LA PARTE ACUSTICA Y EMPIEZA 
LA GUITARA ELECTRICA CON:

(AHORA NO TENGO MI GUITARRA CONMIGO POR ESO NO ESTOY
DE TODA ESTA PARTE ASI QUE SI QUIERE IGNOREN LO QUE 
SIGUE PERO SI LES SUENA BIEN Y ES MUY AGUDO CORRAN 
TODO UN TRASTE ATRAS)

|-------------------------------------------------|
|-5-3---555--5-3----555--5~~13-10--8--66-6-888----|
|-----5----------5--------------------------------|
|-------------------------------------------------|
|-------------------------------------------------|
|-------------------------------------------------|

CONFIO EN EN ESTA PARE YA LES DI LA IDEA SOLO TIENEN 
QUE UBICAR BIEN TODO ESTO, PERO SI ESTA BIEN.... 
....BACAN PARA USTEDES)

Por favor pasenme todo lo que tengan de Mar de Copas
y apoyen al Rock NACIONAL...

Cualquier pedido,criticas, otras cosas escribanme a
luismi_4@
Suggest correction
Give kudos to tab author, rate the tab!
1 2 3 4 5
comments
print report bad tab
guest
Wanna post a correction for this tab? Suggest correction