Oops, an error
Loading. Please wait.

Entre Los Arboles Tab

version 2
version 2

Whole song

38 views 6 this week
no commentswrite comment
1 2 3 4 5
3 more votes to show rating
add to favorites
launch autoscroll
font size
0
reset
how to read this tab
guitar tuner
Autoscroll
slow
fast
+/-
esc
set tempo
stop
Help us to improve Ultimate-Guitar.com Take our survey!
×
Si alguien tiene más punteos de Mar de Copas o algun comentario 
mande un mail a: danielalonso26@

Primero arpegiando C - Am - F - G 

E ------------------1---3-1-0-1-0-1-3--5-3-1-0-
B -1-1-3-5-1--1-3-5----------------------------
G ---------------------------------------------
D ---------------------------------------------
A ---------------------------------------------
E ---------------------------------------------

E -------------------------------------1--3---------------
B -1-0---1--1-0---1--1-0---1--1-0---1--1--3---------------
G -----0--------0--------2--------2----2--0---------------
D -------------------------------------3--0---------------
A -------------------------------------3--2---------------
E -------------------------------------1--3---------------(x2)
Ojo: despues de las dos primeras estrofas se puntea un sola vez

Solo

E ------------------------------------------------------
B ------------------------------------------------------
G ------------------------------------------------------
D -----0--2--3--2--0-----3--5--3--2--3-----2-----2-----3
A --3-----------------3-----------------3-----3-----3---
E ------------------------------------------------------
                                                       
E --------------------0--1--0--------3--1--0--1--1-1-1-0-
B --3--1--0--1--1--3-----------3--1----------------------
G -------------------------------------------------------
D -------------------------------------------------------
A -------------------------------------------------------
E -------------------------------------------------------
>            
E-1-3-1-0-1-0-0-1-0----
B-------------------3-1
G----------------------
D----------------------
A----------------------
E----------------------

Final                                  
E -----------
B -3-1-0-1---delay
G -----------
D -----------
A -----------
E -----------
Suggest correction
Give kudos to tab author, rate the tab!
1 2 3 4 5
comments
print report bad tab
guest
You may want to rate the tab now too:
select rating
Wanna post a correction for this tab? Suggest correction