Oops, an error
Loading. Please wait.

Entre Los Arboles Tab

version 3
version 3

Whole song

22 views 1 this week
no commentswrite comment
1 2 3 4 5
3 more votes to show rating
add to favorites
launch autoscroll
font size
0
reset
how to read this tab
guitar tuner
Autoscroll
slow
fast
+/-
esc
set tempo
stop
Help us to improve Ultimate-Guitar.com Take our survey!
×
Intro:

  C                           C
e|-----------------------|-----------------------|
B|--1--------3------3----|--1--------3------3----|
G|-----0-------0------0--|-----0-------0------0--|
D|-------2-------2-------|-------2-------2-------|
A|--3--------3------3----|--3--------3------3----|
E|-----------------------|-----------------------|

  Am                       Am
e|-----------------------|-----------------------|
B|--1--------3------3----|--1--------3------3----|
G|-----2-------2------2--|-----2-------2------2--|
D|-------2-------2-------|-------2-------2-------|
A|--0--------0------0----|--0--------0------0----|
E|-----------------------|-----------------------|

  F                                      G      
e|-------1-----1-3----1--------|-------3------3--5------3---------|
B|-1-------1-------1----1---1--|-3--------3--------3------3---3---|
G|---2-------2-------2----2---2|---4--------4--------4------4---4-|
D|-----3-----------------------|-----5----------------------------|
A|-3-----3-----3-3----3--------|-5-----5------5--5------5---------|
E|-----------------------------|----------------------------------|

  C                           
e|------------------0---0-----------0---|
B|--1--------3--------3---3---3---------|
G|-----0-------0------------0---0-------|
D|-------2-------2----------------2-----|
A|--3--------3------3---3-----3-----3---|
E|--------------------------------------|

  Am                           
e|------------------0---0-----------0---|
B|--1--------3--------3---3---3---------|
G|-----2-------2------------2---2-------|
D|-------2-------2----------------2-----|
A|--0--------0------0---0-----0-----0---|
E|--------------------------------------|

  F                                      G      
e|-------1-----1--3-----1--------|------3-----3--5------3---------|
B|-1-------1--------1-----1---1--|3-------3--------3------3---3---|
G|---2-------2--------2-----2---2|--4-------4--------4------4---4-|
D|-----3-------------------------|----5---------------------------|
A|-3-----3-----3--3-----3--------|5-----5-----5--5------5---------|
E|-------------------------------|--------------------------------|
(la variación que se escucha en las dos ultimas notas se realiza en la segunda guitarra)

riff 1
  C                       Am            F G  X 2      
e|-0-----0-0-----0---|--0-----0-0-----0-|
B|---3-1-----3-1-----|----3-1-----3-1---|
G|-------------------|------------------|
D|-------------------|------------------|
A|-------------------|------------------|
E|-------------------|------------------|

C                              F      
Por no dejar correr un par de viejas lágrimas
            G                  C  Am
Por ignorar a un ángel que enfrente a mi pasó
            A              F      E
De pronto te vi andar entre los árboles 
                        Am
Un hechizo me hirió en el corazón.

C                              F
Por no dejar pasar la flecha que al azar voló  
            G                   C      Am
Por olvidar la magia que un alma en pena me enseñó
            A             F      E
De pronto te vi andar entre los árboles 
                  Am
Al vestirse de rosa me encontró
 
Repetir riff 1

C                                         F      
Por merodear entre la suerte y el lamento
            G                  C   Am
El juego de las hadas y el embrujó del viento
            A               F      E
Y siempre te vi andar entre los árboles 
                  Am
Una vez mas el juego terminó 

Coro:
C            F              G               C
Despierta en vuelo, princesa de sueños ante esta guerra de honor
C            F              G               C
La pócima es el guardián de tu prisión, contra mis besos de amor
C            F              G               C
Eres la bruja del mal mas linda y tierna, del espejo hablador
C            F              G                           C
Y has de saber,  que a tu conjuro...   respondo con una flor. 

C F G C  X 2

Punteo:

e|----------------------------------------------|
B|----------------------------------------------|
G|--------------0----------------------------0--|
D|---0-2-3-2-0----3-2-3---3-3-3-3-0---0---0-----|
A|-3-----------3---------------------------3----|
E|----------------------------------3---3-------|

e|-0------------3-1-0-1--1-1-1-0-1-3-3-1-0-1-0-0-1-0---|
B|---3-1--1-1-1------------------------------------3-1-|
G|-----------------------------------------------------|
D|-----------------------------------------------------|
A|-----------------------------------------------------|
E|-----------------------------------------------------|

C                                       F      
Por no dar media vuelta cuando un duende se cruzó
             G                  C   Am
Por no saber a donde te internaste en el bosque
            A               F      E
Y siempre te vi andar entre los árboles 
                        Am
Y tu rubor prendió en mi corazón
C          F                  G
Y por creer, en cuentos de hadas
                  C
Tu soledad terminó.

Repetir coro


F               G                        C
Que a tu conjuro..., respondo con una flor 
F               G                        C
Que a tu conjuro..., respondo con una flor

Final

e|---------------|
B|--3--1--0--1---|
G|--0--0--0--0---|
D|--2--2--2--2---|
A|--3--3--3--3---|
E|---------------|
Suggest correction
Give kudos to tab author, rate the tab!
1 2 3 4 5
comments
print report bad tab
guest
You may want to rate the tab now too:
select rating
Wanna post a correction for this tab? Suggest correction