Oops, an error
Loading. Please wait.

Entre Los Arboles Tab

version 4
version 4

Whole song

64 views 3 this week
no commentswrite comment
1 2 3 4 5
3 more votes to show rating
add to favorites
×
Save as Personal and add changes to this tab that will be seen only by you. Learn more ›
×
You can save this tab as Personal to edit and correct it or add notes. All changes will be seen only by you. Learn more »
save as personal
new!
launch autoscroll
font size
0
reset
how to read this tab
guitar tuner
Autoscroll
slow
fast
+/-
esc
set tempo
stop
Se usan dos guitarras; la solista hace los arpegios, la guitarra rítmica 
deberá tocar las notas que estan sobre la tablatura -excepto en las dos 
primeras partes del INTRO, ya que ahí estas sólo son referencia al acorde 
arpegeado. La nota FA del INTRO debe tocarse pisando la cuarta cuerda
con el anular y sin pisar la quinta cuerda. El meñique debe quedar 
libre para hacer el toque en la primera cuerda. Este toque Debe ser muy rapido 
y se debe sacar el dedo inmediatamente para lograr el efecto. 
En el CORO, la guitarra solista puede tocar las notas en quintas 
(eléctrica) o tocarlas con fuerza para conseguir los acordes de poder. 
En las estrofas, la guitarra solista puede arpegear los acordes en 
las tres primeras cuerdas, especialmente el F y G en los primeros
dos versos y después arpegear en todos los acordes que siguen a A7. 

   EADGBe
G  355433
G7 353433
G1 320003
C1 x35553
E7 022130

INTRO:

  C                        Am7
|--------------------------|--------------------------------|
|-1---1---1---3---3---3----|---1---1---1---3---3---3--------|
|--0---0---0---0---0---0---|----0---0---0---0---0---0-------|
|---2---2---2---2---2---2--|-----2---2---2---2---2---2------|
|-3------------------------|---0----------------------------|
|--------------------------|--------------------------------|

  F                           G
|--------------------3----------|--------------------5---------------|
|--------1---1---1------1---1---|-----3---3---3--------3--3----------|
|---------2----2---2---2-2------|------4----4--4--4------4-4---------|
|------3----3---3----------3----|----5---5---5--5------------5-------|
|-------------------------------|------------------------------------|
|-------------------------------|------------------------------------|


(Guitarra rítmica puede intentar este acompañamiento sólo durante la 
segunda parte, deben escuchar bien la canción)
|--------------------------------|--------------------------------|
|---1----------3---------5-------|---1--------3--------5----------|
|--------------------------------|--------------------------------|
|--------------------------------|--------------------------------|
|--------------------------------|--------------------------------|
|--------------------------------|--------------------------------|


2da parte

  C                        Am7
|--------------------------------|--------------------------------|
|-1---3---3---1---3---3----------|---1---3---3---1---3---3--------|
|--0---0---0---0---0---0---------|----0---0---0---0---0---0-------|
|---2---2---2---2---2---2--------|-----2---2---2---2---2---2------|
|-3------------------------------|---0----------------------------|
|--------------------------------|--------------------------------|

  F                           G
|----------------------3---------|----------------------5-------------|
|----------1---1---1------1------|----------3--3--3--------3----------|
|------2----2---2---2------2-----|------4----4--4--4--------4---------|
|----3---3---3---3---3---3-------|----5---5---5--5--5-----5---5-------|
|--------------------------------|------------------------------------|
|--1-----------------------------|--3---------------------------------|


3ra parte

(Aqui entra la guitarra ritmica, por lo general aqui empieza la canción
en los conciertos)
 C                           Am                  
|--------------------------------|--------------------------------|
|-5---3----3-----5---3------3----|--5---3-----3-----5--3-----3----|
|-------5---------------5--------|---------5--------------5-------|
|--------------------------------|--------------------------------|
|--------------------------------|--------------------------------|
|--------------------------------|--------------------------------|

F                            G                    G7
Uhhh.............               Uhh................

(X2)


C                                    F
Por no dejar correr un par de viejas lágrimas
                 G1                      C      
por ignorar a un ángel que frente a mi pasó

 5|---3--2--0---------|       A7               A              Dm
                          de pronto te vi andar entre los árboles
E                 E7         Am
un hechizo me hirió en el corazón.

C                              F      
Por no dejar pasar la flecha que al azar voló
            G1                    C        
por olvidar la magia que un alma en pena me enseñó

5|---3--2--0----------|        A7               A              Dm
                    de pronto te vi andar entre los árboles
E               E7           Am
al vestirse de rosa me encontró.

 C                           Am                  
|--------------------------------|--------------------------------|
|-5---3----3-----5---3------3----|--5---3-----3-----5--3-----3----|
|-------5---------------5--------|---------5--------------5-------|
|--------------------------------|--------------------------------|
|--------------------------------|--------------------------------|
|--------------------------------|--------------------------------|

F                            G                        G7
Uhhh.............               Uhh................
      

C                             F       
Por merodear entre la suerte y el lamento
             G1                  C 5|---3--2--0---------------|
el juego de las hadas y el embrujo del viento
A7               A              Dm
y siempre te vi andar entre los árboles
E                E7         Am
una vez mas el juego terminó.

CORO:

     C                F                  G1                    C
Despierta en vuelo, princesa de sueños, ante esta guerra de honor
     C                 F              G1           C
la pócima es el guardián de tu prisión contra mis besos de amor
     C             F              G1          C
eres la bruja del mal mas linda tierna del espejo hablador
   C              F              G1                C
y has de saber que a tu conjuro respondo con una flor.


     C1             F      G      C1                   
|---------------------------------------------------------|
|---------------------------------------------------------|
|---------------------------------------------------------|
|-------------3/5/3--3-2-3--3-2-3-2h3----------------5----|
|---2-3-5-3-2------------------------3------5---5--3------|
|-----------------------------------------3---3-----------|

  F                              G      
|---------------------------------------------------------------|
|-5-------8-6-5-5-6-v--5-6-5-6-5-6-s-88/6-5-6--5-5h6------------|
|--7-5-555-------------------------------------------7-5--------|
|---------------------------------------------------------------|
|---------------------------------------------------------------|
|---------------------------------------------------------------|

C                                F
Por no dar media vuelta cuando un duende te cruzó
            G1                          C          
por no saber a donde, te internaste en el bosque

5|---3--2--0---------------|      A7               A              Dm
                        y siempre te vi andar entre los árboles

E                E7             Am
y tu rubor prendió en mi corazón
G              F          G                        C
y por creer en cuentos de hadas... tu soledad terminó...

    C                F                G1            C
Despierta en vuelo, princesa de sueños, ante esta guerra de honor
     C                 F                G1         C
la pócima es el guardián de tu prisión contra mis besos de amor
     C              F             G1          C
eres la bruja del mal mas linda tierna del espejo hablador
   C                F           G1                C
y has de saber que a tu conjuro respondo con una flor

F               G1                    C
que a tu conjuro respondo con una flor

F               G1                    C
que a tu conjuro respondo con una flor...


FINAL:

     G1             C
|--------------------------------|
|-----5--3-----------------------|
|-----------4--5-----------------|
|--------------------------------|
|--------------------------------|
|--------------------------------|


Esta transcripción se la dedico a la 
chica que a la que debo tanto:
Marlene, mi bruja del mal
y princesa en mis sueños.
Te quiero mucho.
Suggest correction
Give kudos to tab author, rate the tab!
1 2 3 4 5
comments
print report bad tab
guest
Wanna post a correction for this tab? Suggest correction