Oops, an error
Loading. Please wait.

Falso Amor Bass

15 views 1 this week
no commentswrite comment
1 2 3 4 5
3 more votes to show rating
add to favorites
launch autoscroll
font size
0
reset
guitar tuner
×
Best way to learn
"Falso Amor"
Autoscroll
slow
fast
+/-
esc
set tempo
stop
MANES ES MI PRIMERA TRANSCRIPCION ESPERO KE LES GUSTE
ESTA CANCION ESTA BUENA PARA LOS KE FUERON CHOTEADOS ALGUNA VES

INTRO:
G/88-----------88--------/88-----------88--------/
D/--88-10.10-66--88-33-33/--88-10.10-66--88-33-33/
A/-----------------------/-----------------------/
E/-----------------------/-----------------------/

AQUI ENTRA CANTANDO

G/88-88-----------------------88-88-----/
D/-----88-88-10.10-10.10-66-66-----88-88/
A/--------------------------------------/
E/--------------------------------------/

G/88-88---------------------------------/
D/-----88-88-10.10-10.10-66-66-----88-88/
A/----------------------------88-88-----/
E/--------------------------------------/

G/-----------88------------------------------------------------/
D/66-66-88-88--88-10.10-10.10-----88-88-10.10-10.10------------/
A/---------------------------88-88-----------------11.11.11.11-/
E/-------------------------------------------------------------/

G/------------/
D/----------8-/
A/10h11-10-8--/
E/------------/
CORO:

G/88------------------/-88--------------/
D/--88-10---------8--8/---88-10---------/
A/-----------8---8----/------------8---8/
E/--------------------/-----------------/
:
G/88-----------88--------/88-----------88--------/
D/--88-10.10-66--88-33-33/--88-10.10-66--88-33-33/
A/-----------------------/-----------------------/
E/-----------------------/-----------------------/

G/-----44-44-66-66--66-88-88-----------------88-88---/
D/44-44-----------44--------99-99-11.11-11.11-----99-/
A/---------------------------------------------------/
E/---------------------------------------------------/

G/-------66-66-/
D/8h9-8-6------/
A/-------------/
E/-------------/

CORO: 2

G/---------------/----------------/
D/---------------/----------------/
A/--44-6--------4/--44-6--------4-/
E/22--------4----/22--------4-----/

FINAL:

G/-----------------------/
D/-----------------------/
A/--44-66-----44---------/
E/22-----77-22--44-44s2-2/

SI ALGO ESTA MAL ESCRIBEANME A    MEMO_12_23@
JEJEJEEJ

ARRIBA PERU
Suggest correction
Give kudos to tab author, rate the tab!
1 2 3 4 5
comments
print report bad tab
guest
You may want to rate the tab now too:
select rating
Wanna post a correction for this tab? Suggest correction