Oops, an error
Loading. Please wait.

Falso Amor Tab

39 views 1 this week
no commentswrite comment
1 2 3 4 5
3 more votes to show rating
add to favorites
launch autoscroll
font size
0
reset
how to read this tab
guitar tuner
Autoscroll
slow
fast
+/-
esc
set tempo
stop
Help us to improve Ultimate-Guitar.com Take our survey!
×
Bueno aki les va l tab de este temaza de mar de copas!

  D#  A# Cm  G#      D#      Cm       A#
e----------------------------------------
b-11~-9~-8~--6s8-8-9-8~-9s11-11~-11s8-6~-
g----------------------------------------
D----------------------------------------
A----------------------------------------
E----------------------------------------

               D#  A# Cm  G#      D#      Cm       A#
e-------------------------------------------------------
b-6s8-8s9-9s11-11~-9~-8~--6s8-8-9-8~-9s11-11~-11s8-6-4~-
g-------------------------------------------------------
D-------------------------------------------------------
A-------------------------------------------------------
E-------------------------------------------------------

*->Arpegio:

  D#                  A#                  Cm
   Cae la noche a tu boca que Dios te lo crea
       G#                     D#         A#
   La ciudad da la hora en tu amor, en tu amor
  D#        A#             Cm              G#
   Comenzar cuatro de la mañana, ahora es fiesta
                 F           A#
   Ya pone el alcohol, el alcohol

*->Rasgueo:

  G#               A#         D#       A#     Cm
   Voy a salir de Fe, voy de norte buscando calor
             F                   A#          Cm   G#
   Que a tu pelo rezar que a tu mano me lleve  ouo

*->Distorsion:

  e--------------
  b--------------
  g--------------
  D-----------8--
  A--6h7-6-4--8--
  E-----------6--

  A#5                D#5  A#5      C5
   De que sirve el amor   uo  uo  uo
           F5                 A#5                D#5  A#5    C5
   Si me muero por ti si no puedo vivir sin tu amor   uo uo uo
          F5                  A#5
   Si yo pido que si si tu siempre me dices q no

  D#  A# Cm  G#      D#      Cm       A#
e----------------------------------------
b-11~-9~-8~--6s8-8-9-8~-9s11-11~-11s8-6~-
g----------------------------------------
D----------------------------------------
A----------------------------------------
E----------------------------------------

               D#  A# Cm  G#      D#      Cm       A#
e-------------------------------------------------------
b-6s8-8s9-9s11-11~-9~-8~--6s8-8-9-8~-9s11-11~-11s8-6-4~-
g-------------------------------------------------------
D-------------------------------------------------------
A-------------------------------------------------------
E-------------------------------------------------------

*->Arpegio:

  F#         B        C#              F#          C#        D#m
   Vi llegar otra vez a mi boca tus piernas tan blancas al sol
              G#                  C#             D#m  B
   Que a tus labios besar q a tu pecho me lleve eee ouo

*->Distorsion:

  e--------------
  b--------------
  g-----------6--
  D--4h5-4-2--6--
  A-----------4--
  E--------------

  C#5                F#5    C#5   D#5
   De que sirve el amor,  uo  uo  uo
         G#5                  C#5           F#5   C#5  D#5
   [ch]B[/ch] matabas [ch]E[/ch] aliento con solo mirarte amor   uo uo uo
           G#5                 C#5
   Si tan pàlido estoy sin tu cálido y falso amor

  F#  C#  D#m  B          F#        D#m       C#
e------------------------------------------------
b-14~-12~-11~--9s11-11-12-11~-12s14-14~-14s11-9~-
g------------------------------------------------
D------------------------------------------------
A------------------------------------------------
E------------------------------------------------

                   F#  C#  D#m  B          F#        D#m      C# D#m
e-------------------------------------------------------------------
b-9s11-11s12-11s14-14~-12~-11~--9s11-11-12-11~-12s14-14~-14s11-9-7~-
g-------------------------------------------------------------------
D-------------------------------------------------------------------
A-------------------------------------------------------------------
E-------------------------------------------------------------------

Y ya sabn cualkier consulta o correccion m la mandan a mi mail
Suggest correction
Give kudos to tab author, rate the tab!
1 2 3 4 5
comments
print report bad tab
guest
You may want to rate the tab now too:
select rating
Wanna post a correction for this tab? Suggest correction