Oops, an error
Loading. Please wait.

Fugitivo Tab

24 views 1 this week
no commentswrite comment
1 2 3 4 5
3 more votes to show rating
add to favorites
launch autoscroll
font size
0
reset
how to read this tab
guitar tuner
×
Best way to learn
"Fugitivo"
Autoscroll
slow
fast
+/-
esc
set tempo
stop
Esta canción es de la p.m asi que ojala la toque y maten el rato,
la tablatura anterior esta casi bien pero algunis acordes estan mal, y claro
le faltan los punteos de la intro,estrofa y pre coro.

F=full

Intro: com palm mutting

PM....................................

e ----------------------------2-2-2-2-2--0---
b -3--3-3-3--3-3--3-3-3-3-3-3---3-3-3-3--2---
g -2--2-2-2--2-2--2-2-2-2-2-2---2-2-2-2--0---
d -0--0-0-0--0-0--0-0-0-0-0--------------2---
a ---------------------------------------0---
e -------------------------------------------


2da guit:   D  Dsus2  D  Dsus2   G           E     A7
         
         e ----------------------------------------0--------
         b ----------------------------------------5--5f----
         g ----------------------------------------6-----6f-
         d ------4----2----4-----5----5-4-2--------5--------
         a -5--------------------------------2--------------
         e -------------------------------------------------

(el D que tiene '*' arriba quiere decir que la primera hace 
lo que esta en el tab de abajo)

 *
 D =


e -2-2-0-2--------------
b -3-3-3-3--------------
g -2-2------------------
d ----------------------
a ----------------------
e ----------------------


(el D que tiene '%' al lado quiere decir que la primera a mitad del tiempo de D hace 
lo que esta en el tab de abajo)

  %
  D =

e ---2h3p2------------
b ---------3----------
g --------------------
d --------------------
a --------------------
e --------------------

(palabra que tenga '$' arriba quiere decir que la primera toca 
ahi lo que esta ebn el tab de abajo)

e ------------------------------
b -7p6--------------------------
g ------7-6-4-(4)-3--4----------
d ------------------------------
a -------------------------------
e ------------------------------
         
    *   *
D G D G D G A7


D                G            Em         A7
 El fugitivo emprende otro camino lejos del infierno aquel
F#m                Bm     $   F#m           Bm
   con su mirada a solas lo refleja cual espejo
   $     G                 A7 
 más se aleja y más se encuentra cerca de él
D                   G      $    Em          A7
 más de seiscientas millas de camino le faltan por recorrer
F#   $               Bm             F#              Bm
  tal vez al norte encontrará un lugar donde hundir un
           G         A7              D
 recuerdo más en el mar de Punta Mero, 
G          D         G         D      G        A7
 alli no espero..... en Punta Mero....en punta...


G           D%     G          D%
 Cierra los ojos y siente su sombra al caminar
G            D          
 busca el abrazo de una 
   A7            Bm
   red y un beso de coral

e ----0------------2---------
b ------2------------3-------
g -------0-------------4-----    (la letra junto con este arpegio)
d --2-----------4------------
a -0-----------2-------------
e ---------------------------

G           D%       G           D%
 avanza un paso más, tal vez consiga despertar
G          D                  
 quizás el opte por 

       A7         Bm               G
   asesinar,y sin piedad ,pues no hay piedad,
e ----0------------2---------------3-------
b ------2------------3---------------3-----
g -------0-------------4---------------4---     (la letra junto con este arpegio)
d --2-----------4--------------------------
a -0-----------2----------------5----------
e -----------------------------3-----------

     A7                             D
 los fantasmas de su alma y diga 'adios.. 
F#m                Bm
   con esta última flor me voy
G                  A7
 así como ella tan solo estoy
G                 A7
 y su pasado no vuelve
                     D
 por eso les digo adios
F#m                  Bm
   no me mires a los ojos Y
G                     A7
 guardate esos labios rojos
                             D
 pa, pa, pa, para mejor ocasión'.

       *     *
 D  G  D  G  D  G  A7

    F#     Bm                

e --2-2-x-x-2--2-2-2-2------
b --2-2-x-x-3--3-3-3-3------
g --3-3-x-x-4--4-4-4-4------
d --4-4-x-x-4--4-4-4-4------
a --4-4-x-x-2--2-2-2-2------
e --2-2-x-x-----------------

    F#     Bm              F#   B 

e --2-2-x-x-2-------------------------------
b --2-2-x-x-3--7p6--------------------------
g --3-3-x-x-4------7-6-4-3-3--(3)s(10)s(3)--
d --4-4-x-x-4-------------------------------
a --4-4-x-x-2-------------------------------
e --2-2-x-x---------------------------------


   F#     Bm                

e --2-2-x-x-2--2-2-2-2------
b --2-2-x-x-3--3-3-3-3------
g --3-3-x-x-4--4-4-4-4------
d --4-4-x-x-4--4-4-4-4------
a --4-4-x-x-2--2-2-2-2------
e --2-2-x-x-----------------
      
 

F# y B   (x2)


              F#       Bm
  Lo que era amor es un infierno
F#       Bm
  cómo besarte así
F#            Bm             A7
  fue un solo gesto casual... fugitivo!
  D             A7   D            A7
   vuelvéte a morir..  no mires atras.........busca el viento

e -----0---------0-----------0--------0-------0-0-0-0---
b ----3--3----------2-------3--3---------2----2-2-2-2---
g --2------2----------0---2-----2----------0--0-0-0-0---       (la letra junto con este arpegio)
d -0-----------2---------0-----------2--------2-2-2-2---
a ------------0--------------------0----------0-0-0-0---
e ------------------------------------------------------

G           D%
 avanza un paso más,
G            D%
 tal vez consiga despertar
G          D        
 quizás el opte por 
 
   A7         Bm               G
   asesinar,y sin piedad ,pues no hay piedad,
e ----0------------2---------------3-------
b ------2------------3---------------3-----
g -------0-------------4---------------4---     (la letra junto con este arpegio)
d --2-----------4--------------------------
a -0-----------2----------------5----------
e -----------------------------3-----------  
   
    A7                             D
 los fantasmas de su alma y diga 'adios.. 
F#m                Bm
   con esta última flor me voy
G                  A7
 así como ella tan solo estoy
G                 A7
 y su pasado no vuelve
                    D
 por eso les digo adios
F#m                  Bm
   no me mires a los ojos Y
G                     A7
 guardate esos labios rojos
                             D
 pa, pa, pa, para mejor ocasión'
G                D
 con la ultima flor
G            D
 la ultima flor
G          A7
 la ultima.....flooooooooor
D             A7   D            A7
   vuelvéte a morir..  no mires atras.........busca el viento.............

e -----0---------0-----------0--------0-------------0----------0-----
b ----3--3----------2-------3--3---------2--------3---3----------2---
g --2------2----------0---2-----2----------0-----2------2----------0-     (la letra junto con este arpegio)
d -0-----------2---------0-----------2----------0-------------2------
a ------------0--------------------0------------------------0--------
e -------------------------------------------------------------------
 


con esto acaba como veran en la anterior no hay arpegios ni punteos,y A7 esta mal utilizado en los
coros por que es D y en los pre coros no es Em si no G

Bueno eso es todo, cualquier comentario corrección etc, mi mail: bracho_rhcp@
Suggest correction
Give kudos to tab author, rate the tab!
1 2 3 4 5
comments
print report bad tab
guest
You may want to rate the tab now too:
select rating
Wanna post a correction for this tab? Suggest correction