Oops, an error
Loading. Please wait.

Fuiste Mia Un Verano Tab

31 views 3 this week
no commentswrite comment
1 2 3 4 5
3 more votes to show rating
add to favorites
launch autoscroll
font size
0
reset
how to read this tab
guitar tuner
×
Best way to learn
"Fuiste Mia Un Verano"
Autoscroll
slow
fast
+/-
esc
set tempo
stop
Bueno aquí les va esta rola, a pedido de la gente de la FIEE.
Con cariño para todos los seguidores de este grupazo, en especial para
todos aquellos que gustan de las 'baladas inmortales'. Y sigamos apoyando
al rock de nuestro querido país.

Sólo algo para añadir: Estar enamorado es algo maravilloso y compartir ese
sentimiento con la persona a quien amas, es realmente 'ALUCINANTE...!!!'

TE AMO: ROCÍO (RMMA)


FUISTE MIA UN VERANO / ELLA YA ME OLVIDO


Acordes utilizados:

  E5  A5  E5
e|---|---|---|
B|---|---|---|
G|-9-|---|-7-|
D|-9-|-7-|-7-|
A|-7-|-7-|-5-|
E|---|-5-|---|

Intro:(Guitar. clásic.)

e|-----5---5--|-----5---5--|-----4---4--|-------5---5-|
B|---6---6----|---5---5----|---5---5----|---5-----5---|
G|-7----------|-5----------|-4----------|-5---5-------|
D|------------|------------|------------|-------------|
A|------------|------------|------------|-------------|

e|-----5---5--|-----5---5--|-----4---4--|-------5-----|
E|------------|------------|------------|-------------|
B|---6---6----|---5---5----|---5---5----|---5-----5---|
G|-7----------|-5----------|-4----------|-5---5-----5-|
D|------------|------------|------------|-------------|
A|------------|------------|------------|-------------|
E|------------|------------|------------|-------------|end intro.

Riff 1:

e|-------5-----------5-|
B|---5-----5------5----|
G|-5---5-----5--5---5--|
D|---------------------|
A|---------------------|
E|---------------------|

Verso1:

Riff 1                                      E5(dist.)
Hoy la ví, fué casualidad, yo estaba en el  bar

           A5               D5            A5
me miró al pasar, yo le sonreí y le quise hablar.

                   E5               A5                   D5
Me miró y dijo que no, que otra vez será, que otra vez será,

             A5                E5                A5
que otra vez será, tierno amanecer, se que nunca más.

                D5                   A5
Como olvidar su pelo, como olvidar su aroma,

                   E5                      A5
si aún navega en mis labios el sabor de su boca,

               D5                      A5
cada chica que pase con un libro en la mano,

             E5                    A5
me traerá su nombre, como en aquel verano.

              D5                  A5
Fuiste mía un verano, solamente un verano

                   E5                      A5
y aún no olvido la playa, ni aquel viejo café.

                 D5                          A5
Y aquel pájaro herido, que entiviaste en tus manos,

                  E5                    A5
ni tu voz, ni tus pasos, se alejarán de mí...

       D5                A5                 E5            A5
leleleleeeeé, leleleleleleeeeee, lelelelelelelele, leleleleeeeee.   [x2]


Verso 2:

A5              D5                           A5
Ella, ella ya me olvido y yo, (yo la recuerdo ahora)

E5               A5                   D5
Era como la primavera: Su anochecido pelo,

                  A5                        E5
su voz dormida en besos y junto al mar la fiebre

                     A5
que me llevó a su entraña...

              E5                      A5
Y soñamos con hijos que nos llevó la playa.

D5   E5              A5          D5 E5                A5
Ella, ella ya me olvido, eheh! y yo, yo no puedo olvidarla.


Solo:

   D5            A5          E5         A5
e|-------------|-----------|-----------|----------|
B|-------------|-----------|-----------|----------|
G|-7-9-10-9-7--|-5-7-9-7-9-|-4-5-7-5-4-|-5-7-7/9--|
D|-------------|-----------|-----------|----------|
A|-------------|-----------|-----------|----------|
E|-------------|-----------|-----------|----------|

  D5            A5               E5
e|-------------|---------------|--------|
B|-------------|---------------|--------|
G|-7-9-10-9-7--|-5-7-9-7-9-5-7-|-7/9v~~-|
D|-------------|---------------|--------|
A|-------------|---------------|--------|
E|-------------|---------------|--------|

                    A5
Yo, yo no puedo olvidarla...


Final:    A5


Bueno eso es todo, disfrútenla, espero que les salga y le pongan mucho feeling!
Saludos para mi gente de la UNCP.
Para: Lucho (Octopus), Denis (transformer), Juan Carlos (burrito) y
Guillermo (Nemo).
También para: Miguel (Spike), Braulio (Balo), Geimy (la chica fatal),
Cinthia (La maestra), Kimy (Delacky), Bruce (Hiwy) y para los Eduardo's (lykos y el pollito).
Aguante' gente que ya se vienen con todo 'Los Zapatos eléctricos'
Aca les dejo mi correo: juanjo_ych@ solo para contratos
y borracheras...
Suggest correction
Give kudos to tab author, rate the tab!
1 2 3 4 5
comments
print report bad tab
guest
You may want to rate the tab now too:
select rating
Wanna post a correction for this tab? Suggest correction