Oops, an error
Loading. Please wait.

Huida Chords

version 3
version 3

Whole song

8 views 1 this week
no commentswrite comment
1 2 3 4 5
3 more votes to show rating
add to favorites
×
Save as Personal and add changes to this tab that will be seen only by you. Learn more ›
×
You can save this tab as Personal to edit and correct it or add notes. All changes will be seen only by you. Learn more »
save as personal
new!
launch autoscroll
font size
0
reset
transpose
0
reset
simplify chords
display chords
guitar tuner
Autoscroll
slow
fast
+/-
esc
set tempo
stop
Strumming
There is no strumming pattern for this song yet. and get +5 IQ
VERSIÓN ELECTRICA

ESTROFA 1:

G5                      G5                  C5         D5
 Cuando el rumor de sus pasos te sigue por donde tú vaaaas

G5                      G5                      C5       D5
 cuando el clamor de tu culpa en torturas se te hace pagaaar

D#5                   F5                  A#5      G5
 cuando la luna es oscura y no sale y se niega a caer

C5                   D5                   G5
 cuando tu mente revienta y no piensas y no puedes veeeer


CORO :

C5        D5            G5
 Algunas horas tienes que olvidar

C5         F5            A#5   (A#5-Gm)
 algunas tienes que olvidar.

C5        D5            G5
 Algunas horas tienes que olvidar

C5         D5            G5
 algunas tienes que olvidar.


ESTROFA 2:

G5                        G5                  C5         D5
 Cuando un fantasma te aplasta y te ciega, inválido estaaaas

G5                       G5                    C5          D5
 cuando el rencor te castiga y te hiere, te obliga a golpeaaar

D#5                      F5                  A#5              G5
 cuando las sombras te duermen y duermes y sueñas con ellas nooo más

C5                  D5                   G5
 cuando la vida prosige y te deja y se aleja al pasaaar.


CORO :

C5        D5            G5
 Algunas horas tienes que olvidar

C5         F5            A#5   (A#5-Gm)
 algunas tienes que olvidar.

C5        D5            G5
 Algunas horas tienes que olvidar

C5         D5            G5
 algunas tienes que olvidar.


NOTA : tocar esta parte con este riff o con los acordes

   A#               F

e -------1-----1----------1-----1-
b -----3---3-3----------1---1-1---
g ---3----------------2-----------  ...(x4)..y luego D
d -3----------------3-------------
a --------------------------------
e --------------------------------


A#        F    A#                  F
 Ya todo pasó...los rostros van envejeciendo

A#           F    A#                F               D
 todo está igual...y ya no es más que un recuerdo y una historia

G5        D5   G5              D5
 Ya todo pasó...era un engaño de sus besos

G5          D5  D#5                           D5   C5
 y la confusión...posesionada de tu cuerpo y tú,

D5                                                C5
 dejando al tiempo que juegue a los dados con tu luz.


SOLO :

e ----------------------------------------------------------------------------------------------
b ----------------------------------------------------------------------------------------------
g --3s5-7-5-7-5s3s2-0-0-5s(7)--7s(5)-5-5-5s(7)-8-10-8-10-8-7h(8)-7-5s3-(((3)))--3s5-7-5-7-5s3s2-
d ----------------------------------------------------------------------------------------------
a ----------------------------------------------------------------------------------------------
e ----------------------------------------------------------------------------------------------

e --------------------------------------------------------
b --------------------------------------------------------
g --0h(2)p0--0-0-5s(7)--7s(5)-5-5-7-5-7-5s3s2--0-(((0)))--
d --------------------------------------------------------
a --------------------------------------------------------
e --------------------------------------------------------


G5                      G5                C5         D5
 Cuando un recuerdo se vuelve difuso, se borra y se vaaa

G5                    G5                 C5       D5
 cuando tú te resquebrajas y crece otra coraza iguaaal

D#5                      F5                   A#5        (A#5-G5)
 cuando la inercia te empuja y un cuadro se vuelve tu faz

C5                      D5                        G5
 cuando el futuro es incierto, no existe, lo has dejado atraaas.


CORO :

C5        D5            G5
 Algunas horas tienes que olvidar

C5         F5            A#5   (A#5-Gm)
 algunas tienes que olvidar.

C5        D5            G5
 Algunas horas tienes que olvidar

C5         D5            G5
 algunas tienes que olvidar.
Suggest correction
Give kudos to tab author, rate the tab!
1 2 3 4 5
comments
print report bad tab
guest
Wanna post a correction for this tab? Suggest correction