Oops, an error
Loading. Please wait.

La Internacional Tab

23 views 1 this week
no commentswrite comment
1 2 3 4 5
3 more votes to show rating
add to favorites
launch autoscroll
font size
0
reset
how to read this tab
guitar tuner
Autoscroll
slow
fast
+/-
esc
set tempo
stop
Help us to improve Ultimate-Guitar.com Take our survey!
×
Intro: F#5

 ---------------------------2-0-------------------------------
 ---0---2-0-----2-0-------4-----4-2-1-2-4-5-4-2-0---0---------
 -----3-----1-------3-1-------------------------------3-2-0-1-
 -4-----------4---------4-------------------------4-----------
 -------------------------------------------------------------
 -------------------------------------------------------------

 ---------0----------/-----------------/-------------
 -0-----2---2-4-2-0--/-----0-----2-2-2-/-2-----2-2---
 ---3-1-------------3/-4-3---1-3------1/---4-3-----1-
 --------------------/-----------------/-------------
 --------------------/-----------------/-------------
 --------------------/-----------------/-------------

 ----------------------------/-----------------------------
 -4-2---------2-2-4-2--------/-2-------------4-2-----------
 -----4-1-3-4---------4-----1/---4-3-1-3-4-------4+3+4-3-1-
 -----------------------4-1--/-------------4---------------
 ----------------------------/-----------------------------
 ----------------------------/-----------------------------
 
 ----------------------------2-0-------------------
 --4-2---------2---------4-4-----4-2-1-2-4-5-4-2-0-
 ------4-----1---4-3-1-3---------------------------
 --------4-1---------------------------------------
 --------------------------------------------------
 --------------------------------------------------

 F#5= (x)
      (x)
      (x)
      (4)
      (4)
      (2)
 
 Eso es todo => chaufas 
Suggest correction
Give kudos to tab author, rate the tab!
1 2 3 4 5
comments
print report bad tab
guest
You may want to rate the tab now too:
select rating
Wanna post a correction for this tab? Suggest correction