Oops, an error
Loading. Please wait.

La Reina De Los Bares Tab

34 views 1 this week
no commentswrite comment
1 2 3 4 5
3 more votes to show rating
add to favorites
launch autoscroll
font size
0
reset
how to read this tab
guitar tuner
Autoscroll
slow
fast
+/-
esc
set tempo
stop
Una muy buena canción de esta banda del rock bicolor:
Les mando solo los punteos porq los acordes ya esta en otra transcripcion.

 Intro:

 ---------3-2-0-2-----------------------
 -----------------------3-2-0---0-2-0---
 -----------------------------2-------2- 
 ---------------------0-----------------
 -(0-4-0)---------0-4-------------------
 --------------------------------------- (4 veces)

 --------------
 --------------
 --------------
 --------------
 ---4-5----4-5-
 -5------5----- (4 veces)

 -----------------------------------------
 -0-------------0-------------------------
 ---2-0-2---------2-0-2-------------------
 ---------0-2-4---------0-2-0-0-0---------
 ---------------------------------4-2-0---
 ---------------------------------------3-

 
 3:15..
 Punteo:

 ----------/----------------/--------------/---------------
 ----------/----------------/-----------0-1/-0---0---------
 -0--------/-----0-0--------/-----0-0-2----/---2---2-0-----
 ---4-2-4--/-4-4-----4-2-4--/-4-4----------/-----------4---
 ---------2/---------------2/--------------/---------------
 ----------/----------------/--------------/---------------

 Piano: D - A - G - F#

 -----------
 -----------
 -----------
 -0---------
 ---4-2-0---
 ---------3-
Suggest correction
Give kudos to tab author, rate the tab!
1 2 3 4 5
comments
print report bad tab
guest
Wanna post a correction for this tab? Suggest correction