Oops, an error
Loading. Please wait.

Lb Tab

35 views 1 this week
no commentswrite comment
1 2 3 4 5
3 more votes to show rating
add to favorites
launch autoscroll
font size
0
reset
how to read this tab
guitar tuner
×
Best way to learn
"LB"
Autoscroll
slow
fast
+/-
esc
set tempo
stop
Bueno,mando está tab, por que es una canción muy buena y en la tab anterior 
estan mal los acordes y faltan los  que la toquen y maten 
el rato.(esta cancin la saque del cd en vivo pero es casi igual que la de 
estudio).Los acordes que estan entre paréntesis solo se rasguean una vez y 
y se cambia al otro acorde,al decir 'riff 3' al lado de algunas palabra,  
significa que se toca éste,si es que quieren.

Intro:

F                              
  uummmmmhh...ummmh uhh ummuumhh ummmmhummm....ummmhhh..uuuuhhmmmm uhmmmmm ummmhh

     F               A#               C
 uooohhhhh uuooohhh ohhhhh ohhh uohhh oh...ouhhhh ohhh

     F               A#               C
 uooohhhhh uuooohhh ohhhhh ohhh uohhh oh...ouhhhh ohhh

     F               A#               C
 uooohhhhh uuooohhh ohhhhh ohhh uohhh oh...ouhhhh ohhh

     F               A#               C                     F5
 uooohhhhh uuooohhh ohhhhh ohhh uohhh oh...ouhhhh ohhh....


   F5      A5     D5     A#5    C5  

e -------------------------------------------------------------------------
b -------------------------------------------------------------------------
g ----------------7-7-7---------5-5-5-5-5-5-5-5----------------------------
d -3-3-3---7-7-7--7-7-7--8-8-8--5-5-5-5-5-5-5-5-----3h5-3------------------
a -3-3-3---7-7-7--5-5-5--8-8-8--3-3-3-3-3-3-3-3--3h5------5-3h5p3----------
e -1-1-1---5-5-5---------6-6-6------------------------------------(5)p(3)--


   F5      A5     D5     A#5    C5  

e --------------------------------------------------------------------------------
b --------------------------------------------------------------------------------
g ----------------7-7-7---------5-5-5-5-5-5-5-5-----------------------------------   (riff 1)
d -3-3-3---7-7-7--7-7-7--8-8-8--5-5-5-5-5-5-5-5-----3h5-3------------------3-(3)--
a -3-3-3---7-7-7--5-5-5--8-8-8--3-3-3-3-3-3-3-3--3h5------5-3h5p3----------3-(3)--
e -1-1-1---5-5-5---------6-6-6------------------------------------(5)p(3)--1-(1)--


NOTA:El 'riff 3' es :

e -------12-----12----12--
b -----------10----10-----
g --/-12------------------
d ------------------------
a ------------------------
e ------------------------


ESTROFA:

C            F        C               F
 Debe saber al sol........Debe saber a Dios

C              F          Am            Dm   Bb          C
 Debe saber a cuando un misterio murió.......Fue condenado

C            F   
 Debe saber al sol...(riff 3)

C               F
 Debe saber a Dios...(riff 3)

C             F          Am           Dm  Bb            C
 Debes saberlo cuando su vida entregó......por una historia de amor

C            F
 Debe saber al sol...


CORO:

Dm                 Am              Dm      (C-A#)
 Te entrego sin rubor mi vida primera

A#         F                              (F5-E5-D#5-D5)                  
 A ver si sabes bien qué hacer con ella

Dm                  Am                      Dm     (C-A#)
 Toma una flor de tierra y duerme en silencio

A#         C      
 Voy condenado a morir

      A#     C
 Tómame....Adios canción de amor


C            F        C               F
 Debe saber al sol........Debe saber a Dios

C              F          Am            Dm   Bb          C
 Debe saber a cuando un misterio murió.......Fue condenado

C            F   
 Debe saber al sol...(riff 3)

C               F
 Debe saber a Dios...(riff 3)

C             F          Am           Dm  Bb            C
 Debes saberlo cuando su vida entregó......por una historia de amor

C            F
 Debe saber al sol...


Estas son las notas del teclado en acordes:   F-Am-Dm-A#-C

(de ahi tocan esto)


   F5      A5     D5     A#5    C5  
  uohhh  ohhh uuuoohhh uohhhh ohhhhhh
e -----------------------------------------------------
b -----------------------------------------------------
g ----------------7-7-7---------5-5-5-5-5-5------------        (riff 2)
d -3-3-3---7-7-7--7-7-7--8-8-8--5-5-5-5-5-5------3-(3)-
a -3-3-3---7-7-7--5-5-5--8-8-8--3-3-3-3-3-3--3h5-------
e -1-1-1---5-5-5---------6-6-6-------------------------


     F               A#               C
 uooohhhhh uuooohhh ohhhhh ohhh uohhh oh...ouhhhh ohhh

     F               A#               C
 uooohhhhh uuooohhh ohhhhh ohhh uohhh oh...


SOLO:

e --6-5--6p5-----5--4-5-4-5-4-5-5-5-5---------------------6---------------6--------------8-8-8-
b -----------6--6------------------------6h8-8f-8f-8f-8f-6---8f-8f-8f-8f-6--8f-8f-8f-8f--8-8-8-
g -------------7---------------------5h7-------------------------------------------------------
d ---------------------------------------------------------------------------------------------
a ---------------------------------------------------------------------------------------------
e ---------------------------------------------------------------------------------------------


e -----------------------6--------------6-------------8-8-8-6h8-6------------------------------
b ------6h8-8f-8f-8f-8f-6--8f-8f-8f-8f-6--8f-8f-8f-8f-8-8-8------8-6h8-8f-8f-8f-8f-8f-8f-8f-8f-
g --5h7----------------------------------------------------------------------------------------
d ---------------------------------------------------------------------------------------------
a ---------------------------------------------------------------------------------------------
e ---------------------------------------------------------------------------------------------


e ------------------------------------6----------------------------------------
b -8f-8f-6-8-8f-8f-8f-8f-8f-8f-8p6--6---8-------(8)-----8--6-----6-------------
g --------------------------------7--------------------------7-----------------
d ----------------------------------------------------------------------3-(3)--
a ----------------------------------------------------------------------3-(3)--
e ----------------------------------------------------------------------1-(1)--
                                                      ouhhh oh hoh... oh

Comentarios,preguntas,etc,mi mail es...aunque ya esta arriba,pero 
por si no lo han visto: bracho_rhcp@
Suggest correction
Give kudos to tab author, rate the tab!
1 2 3 4 5
comments
print report bad tab
guest
You may want to rate the tab now too:
select rating
Wanna post a correction for this tab? Suggest correction