Oops, an error
Loading. Please wait.

Los Hombres Tab

15 views 1 this week
no commentswrite comment
1 2 3 4 5
3 more votes to show rating
add to favorites
launch autoscroll
font size
0
reset
how to read this tab
guitar tuner
Autoscroll
slow
fast
+/-
esc
set tempo
stop
Help us to improve Ultimate-Guitar.com Take our survey!
×
Esta cancion pertenece al disco de miki gonzales pero
la cantan a duo con wicho... espero les vacile y la puedan
sacar esta recontra facil...y encima es una espectacular
cancion

Intro:
e ------------------------------------------
B ------------------------------------------
G ----1-------1-----------------------------
D --2---4-2-4---4-2-4-6---6-4---4-6-4---4-6-     2 VECES
A ----------------------7-----7-------7-----
E ------------------------------------------

e ------------------------------------------
B ------------------------------------------
G ------------------------------------------
D -6s9-9-9-9-7-6-4-6-4-6s9-9-9-9-7-6--------     2 VECES
A ------------------------------------------
E ------------------------------------------

E                     A             B
Ella me nego su amor yo hize el papel
E                      A             B
de un niño abandonado me salio muy bien
E                        A           B
se fue tirando la puerta yo quize llorar
E                            A            B
pero los hombres no lloran me tuve q aguantar

e ------------------------------------------
B ------------------------------------------
G ------------------------------------------
D -6s9-9-9-9-7-6-4-6-4-6s9-9-9-9-7-6--------     2 VECES
A ------------------------------------------
E ------------------------------------------

E                            A            B
Yo no se que es lo que dije ni como ocurrio
E                          A         B
todo fue un mal entendido una confusion
E                              A         B
senti un nudo en la garganta y quize llorar
E                              A            B
pero los hombres no lloran me tuve que aguantar

e ------------------------------------------
B ------------------------------------------
G ------------------------------------------
D -6s9-9-9-9-7-6-4-6-4-6s9-9-9-9-7-6--------     2 VECES
A ------------------------------------------
E ------------------------------------------

e ------------------------------------------
B --5-5---5-7-5---5-5s7-7-7s9s7v------------
G ------8-------8---------------------------     2VECES
D ------------------------------------------
A ------------------------------------------
E ------------------------------------------

E A B ....2 VECES

G#m                          C#m
No la vi por un buen tiempo pero un dia ocurrio
F#m                       E
Iba a lado de otro tipo pero no me vio
C#m                             G#m
senti un nudo en la garganta y quize llorar
A                            B                   E A B....2 veces
pero los hombres no lloran no pude aguantar

E                      A           B
El tiempo lo cura todo me hizo olvidar
E                       A         B
cerraron viejas heridas y pude sanar
E                       A         B
yo confiezo tenia duda de eso que pase
E                               A           B
y es que los hombres no lloran aun no se porque

E A B....2 VECES

e ------------------------------------------
B ------------------------------------------
G ----1-------1-----------------------------
D --2---4-2-4---4-2-4-6---6-4---4-6-4---4-6-     2 VECES
A ----------------------7-----7-------7-----
E ------------------------------------------

e ------------------------------------------
B ------------------------------------------
G ------------------------------------------
D -6s9-9-9-9-7-6-4-6-4-6s9-9-9-9-7-6--------     2 VECES
A ------------------------------------------
E ------------------------------------------
Suggest correction
Give kudos to tab author, rate the tab!
1 2 3 4 5
comments
print report bad tab
guest
You may want to rate the tab now too:
select rating
Wanna post a correction for this tab? Suggest correction