Oops, an error
Loading. Please wait.

Luis Tab

354 views 1 this week
no commentswrite comment
1 2 3 4 5
please rate
add to favorites
launch autoscroll
font size
0
reset
how to read this tab
guitar tuner
Autoscroll
slow
fast
+/-
esc
set tempo
stop
Help us to improve Ultimate-Guitar.com Take our survey!
×
Author
Difficulty
Quutamo 30
intermediate
Intro:

e-----3--0---0-|----3--0---0-|
B-----1--1---1-|----1--1---1-|
G-----2--2---2-|----2--2---2-|   x3
D--------------|-------------|
A-0-0------0---|0-0------0---|
E--------------|-------------|

1era Estrofa:

C
 Calló la voz de un cielo
G --->este G la 2da guitarra lo toca como Am/B
 Calló la voz de un mundo
Am                            G
  de un viernes santo apareció una luz

  |C                    |Am/B
e-|---------------------|-----------------|
B-|---------------------|-----------------|
G-|---------0-------0---|-----0-------0---|
D-|-------2---2---2---2-|---0---0---0---0-|
A-|-0-2-3-------3-------|-2-------2-------|
E-|---------------------|-----------------|

  |Am               |G
e-|-----------------|------------------|
B-|-----------------|------2-------2---|
G-|-----2-------2---|----0---0---0---0-|
D-|---2---2---2---2-|------------------|
A-|-0-------0-------|------------------|
E-|-----------------|--3-------3-------|

C
Tal vez un angel caiga
G
 Tal vez oyó mi adoración
Am                         G
 Y un regalo imposible me prestó

  |C                |Am/B
e-|-----------------|-----------------|
B-|-----------------|-----------------|
G-|-----0-------0---|-----0-------0---|
D-|---2---2---2---2-|---0---0---0---0-|
A-|-3-------3-------|-2-------2-------|
E-|-----------------|-----------------|

  |Am               |G
e-|-----------------|--------------|
B-|-----------------|--------2---2-|
G-|-----2-------2---|------0-------|
D-|---2---2---2---2-|----0---------|
A-|-0-------0-------|--------------|
E-|-----------------|--3-------3---|

2da Estrofa:

F
 Y así nació mi risa
G
 Con solo un juego del amor
C              C/B         Am
 Con solo un poco de valor

  |F                |G
e-|-----------------|-----------------|
B-|-----1-------1---|-----3-------3---|
G-|---2---2---2---2-|---4---4---4---4-|
D-|-3-------3-------|-5-------5-------|
A-|-----------------|-----------------|
E-|-----------------|-----------------|

  |C            |Am/B     |Am
e-|-------------|---------|-------|
B-|-------------|---------|-------|
G-|---------0---|-----0---|-----2-|
D-|-------2---2-|---0---0-|---2---|
A-|-0-2-3-------|-2-------|-0-----|
E-|-------------|---------|-------|

F
 Y así lleno mi vida
G
 Con un ejemplo de pasión
C            C/B    Am...
 Como una bala del amor

  |F                |G
e-|-----------------|-----------------|
B-|-----1-------1---|-----3-------3---|
G-|---2---2---2---2-|---4---4---4---4-|
D-|-3-------3-------|-5-------5-------|
A-|-----------------|-----------------|
E-|-----------------|-----------------|

  |C            |Am/B     |Am
e-|-------------|---------|-------|
B-|-------------|---------|-------|
G-|---------0---|-----0---|-----2-|
D-|-------2---2-|---0---0-|---2---|
A-|-0-2-3-------|-2-------|-0-----|
E-|-------------|---------|-------|

F
 Cómo fue la verdad
G
 Fuíste un angel o no
C             C/B     Am          F         G...
 Fuiste un hijo o solo la más bella ilusión

  |F  		    |G
e-|-----------------|---------------|
B-|-----------------|---------------|
G-|-----2-------2---|-----4-------4-|
D-|---3---3---3---3-|---5---4---5---|
A-|-----------------|---------------|
E-|-1-------1-------|-3-------3-----|

  |C            |Am/B     |Am       |F 	      |G
e-|-------------|---------|---------|---------|-------------------|
B-|-------------|---------|---------|-----1---|-----3-------3-----|
G-|---------0---|-----0---|-----2---|---2---2-|---4---4---4---4---|
D-|-------2---2-|---0---0-|---2---2-|-3-------|-5-------5-------5-|
A-|-0-2-3-------|-2-------|-0-------|---------|-------------------|
E-|-------------|---------|---------|---------|-------------------|

F
 Cada día que pasó
G
 Fue real en verdad
C           C/B         Am        F         G...
 Porque ha quedado en mi esta marca de haber
              F....
querido yo así
G                       C C/B Am... C C/B Am...
 Y que un angel me amó

  |F  		    |G
e-|-----------------|---------------|
B-|-----------------|---------------|
G-|-----2-------2---|-----4-------4-|
D-|---3---3---3---3-|---5---4---5---|
A-|-----------------|---------------|
E-|-1-------1-------|-3-------3-----|

  |C            |Am/B     |Am       |F 	      |G
e-|-------------|---------|---------|---------|-----------------|
B-|-------------|---------|---------|---------|-----------------|
G-|---------0---|-----0---|-----2---|-----2---|-----4-------4---|  x2
D-|-------2---2-|---0---0-|---2---2-|---3---3-|---5---5---5---5-|
A-|-0-2-3-------|-2-------|-0-------|---------|-----------------|
E-|-------------|---------|---------|-1-------|-3-------3-------|

  |F	 	    |G
e-|-----------------|-----------------|
B-|-----1-------1---|-----------------|
G-|---2---2---2---2-|-----4-------4---|
D-|-3-------3-------|---5---5---5---5-|
A-|-----------------|-----------------|
E-|-----------------|-3-------3-------|

  |C            |Am/B     |Am
e-|-------------|---------|-------|
B-|-------------|---------|-------|
G-|---------0---|-----0---|-----2-|   x2
D-|-------2---2-|---0---0-|---2---|
A-|-0-2-3-------|-2-------|-0-----|
E-|-------------|---------|-------|..........

C
 Y asi viniste un día
G
 En forma de un amigo tu
Am                           G
  Un tesoro prestado a el sol

  |C                    |Am/B
e-|---------------------|-----------------|
B-|---------------------|-----------------|
G-|---------0-------0---|-----0-------0---|
D-|-------2---2---2---2-|---0---0---0---0-|
A-|-0-2-3-------3-------|-2-------2-------|
E-|---------------------|-----------------|

  |Am               |G
e-|-----------------|------------------|
B-|-----------------|------2-------2---|
G-|-----2-------2---|----0---0---0---0-|
D-|---2---2---2---2-|------------------|
A-|-0-------0-------|------------------|
E-|-----------------|--3-------3-------|

C
 Así creció una vida
G
 Como una joya del amor
Am                         G
  Como una melodia alrededor

  |C                |Am/B
e-|-----------------|-----------------|
B-|-----------------|-----------------|
G-|-----0-------0---|-----0-------0---|
D-|---2---2---2---2-|---0---0---0---0-|
A-|-3-------3-------|-2-------2-------|
E-|-----------------|-----------------|

  |Am               |G
e-|-----------------|--------------|
B-|-----------------|-------2----2-|
G-|-----2-------2---|-----0--------|
D-|---2---2---2---2-|---0----------|
A-|-0-------0-------|--------------|
E-|-----------------|-3-------3----|

F
 Y así te reclamaba
G
 Para él solo un creador
C         C/B            Am...
 Por un instante me prestó tu vida

  |F                |G
e-|-----------------|-----------------|
B-|-----1-------1---|-----3-------3---|
G-|---2---2---2---2-|---4---4---4---4-|
D-|-3-------3-------|-5-------5-------|
A-|-----------------|-----------------|
E-|-----------------|-----------------|

  |C            |Am/B     |Am
e-|-------------|---------|-------|
B-|-------------|---------|-------|
G-|---------0---|-----0---|-----2-|
D-|-------2---2-|---0---0-|---2---|
A-|-0-2-3-------|-2-------|-0-----|
E-|-------------|---------|-------|

F
 Y fuiste caminando
G
 sin soltarme la mano y yo
C        C/B       Am
 de tu último consejo vida soy...

  |F                |G
e-|-----------------|-----------------|
B-|-----1-------1---|-----3-------3---|
G-|---2---2---2---2-|---4---4---4---4-|
D-|-3-------3-------|-5-------5-------|
A-|-----------------|-----------------|
E-|-----------------|-----------------|

  |C            |Am/B     |Am
e-|-------------|---------|--------|
B-|-------------|---------|-------1|
G-|---------0---|-----0---|-----2--|
D-|-------2---2-|---0---0-|---2----|
A-|-0-2-3-------|-2-------|-0------|
E-|-------------|---------|--------|

F
 Cómo fue la verdad
G
 Fuíste un angel o no
C             C/B     Am          F         G...
 Fuiste un hijo o solo la más bella ilusión

  |F  		    |G
e-|-----------------|---------------|
B-|-----------------|---------------|
G-|-----2-------2---|-----4-------4-|
D-|---3---3---3---3-|---5---4---5---|
A-|-----------------|---------------|
E-|-1-------1-------|-3-------3-----|

  |C            |Am/B     |Am       |F 	      |G
e-|-------------|---------|---------|---------|-------------------|
B-|-------------|---------|---------|-----1---|-----3-------3-----|
G-|---------0---|-----0---|-----2---|---2---2-|---4---4---4---4---|
D-|-------2---2-|---0---0-|---2---2-|-3-------|-5-------5-------5-|
A-|-0-2-3-------|-2-------|-0-------|---------|-------------------|
E-|-------------|---------|---------|---------|-------------------|

F
 Se que esperas allí
G
 Tú me recibiras
C       C/B           Am      F    G...
 Como algún viernes santo, Luis...
                     F....
Que a mi vida dio luz
G
 Que a mi vida dio luz

  |F  		    |G
e-|-----------------|---------------|
B-|-----------------|---------------|
G-|-----2-------2---|-----4-------4-|
D-|---3---3---3---3-|---5---4---5---|
A-|-----------------|---------------|
E-|-1-------1-------|-3-------3-----|

  |C            |Am/B     |Am       |F 	      |G
e-|-------------|---------|---------|---------|-----------------|
B-|-------------|---------|---------|---------|-----------------|
G-|---------0---|-----0---|-----2---|-----2---|-----4-------4---|  x2
D-|-------2---2-|---0---0-|---2---2-|---3---3-|---5---5---5---5-|
A-|-0-2-3-------|-2-------|-0-------|---------|-----------------|
E-|-------------|---------|---------|-1-------|-3-------3-------|

  |F	 	    |G
e-|-----------------|-----------------|
B-|-----1-------1---|-----------------|
G-|---2---2---2---2-|-----4-------4---|
D-|-3-------3-------|---5---5---5---5-|
A-|-----------------|-----------------|
E-|-----------------|-3-------3-------|

Fin:

  |C            |Am/B     |Am
e-|-------------|---------|---------|
B-|-------------|---------|---------|
G-|---------0---|-----0---|-------2-|
D-|-------2---2-|---0---0-|-----2---|
A-|-0-2-3-------|-2-------|---0-----|
E-|-------------|---------|-0-------|

  |C            |Am/B     |Am
e-|-------------|---------|-----3-0-----------0-------|
B-|-------------|---------|-----1-1---------1---------|
G-|---------0---|-----0---|-----2-2-------0-----------|
D-|-------2---2-|---0---0-|---2---------2-------(2)---|
A-|-0-2-3-------|-2-------|-0---------3-----------(3)-|
E-|-------------|---------|---------0-----------------|

   Version corregida deformada y amumentada...

www.mardecopas.com.pe
Suggest correction new What's this?
You can suggest a correction to this tab. Community and Mods will review your correction and vote to approve or reject it.
comments
We did not receive enough feedback on this tab! Please rate:
print report bad tab
1 2 3 4 5
guest
You may want to rate the tab now too:
select rating
Please do not post tabs as comments. Select "correction" instead!