Oops, an error
Loading. Please wait.

Morir Un Poco Chords

version 3
version 3

Whole song

35 views 1 this week
no commentswrite comment
1 2 3 4 5
3 more votes to show rating
add to favorites
launch autoscroll
font size
0
reset
transpose
0
reset
simplify chords
display chords
guitar tuner
×
Best way to learn
"Morir Un Poco"
Autoscroll
slow
fast
+/-
esc
set tempo
stop
Versión Eléctrica


Intro:  Am


Am                 E                Am    A7
 siempre una despedida es triste y sola

Dm                  G            Am    A7
 siempre el decir adios es el morir

Dm                  E          Am        A7
 me arranca el corazon y sigo vivo igual...mejor morir

Dm                Am  E                 Am  A7
 te mueres por morir...te mueres por vivir

Dm                Am   E
 me has besado igual... y tengo que pedir

F       G            C   (C-Am)
 abrazame una noche mas,

E                       Am
 que un amor imposible lo merece igual

E            Am
 quemate entre mis brazos

E            Am
 hundete entre mis brazos

E       Am
 atrevete a dejar salir

       F           G          C
 un deseo que se muere por vivir

e -----------------------
b -----------------------
g -----------------------
d -----------------------
a -3-3-3-3-3-3-3-3-2-0---
e -----------------------

Am                    E         Am    A7
 siempre el destino trae una salida

Dm                   G              Am  (Am-A7)
 siempre una puerta se abre por detras

Dm                 E           Am        A7
 las lagrimas no evitan la partida igual...trata de huir

Dm                Am
  y mueres por morir

E                  Am   A7
 y como estar sin ti

Dm               Am  E
 te he besado igual...y tengo que pedir

F       G            C    (C-Am)
 abrazame una noche mas,

E                       Am
 que un amor imposible lo merece igual

E            Am
 quemate entre mis brazos

E            Am
 hundete entre mis brazos

E       Am
 atrevete a dejar salir

F                 G           C
 un deseo que se muere por vivir

e -----------------------
b -----------------------
g -----------------------
d -----------------------
a -3-3-3-3-3-3-3-3-2-0---
e -----------------------

SOLO :
                                                                         C  Am       Dm
e --------------------------------------------5-5-5-5-5-3-1-0h(1)-3-1-0--0--0--(0)---1-1--1----
b --5-5--5-5-5-3-1-0h(1)-1--0h(1)--1-(((1)))-----------------------------1--1--(1)---3-3--3----
g ---------------------------------2-(((2)))-----------------------------0--2--(2)---2-2--2----
d -----------------------------------------------------------------------2--2--(2)---0-0--0----
a -----------------------------------------------------------------------3--0--(0)-------------
e ---------------------------------------------------------------------------------------------

   Am       E        Am       Dm       Am

e -0-0--0---0-0--0---0-0--0---1-1--1---0-0--0-----------------------------------------------
b -1-1--1---0-0--0---1-1--1---3-3--3---1-1--1------------5h(6)p(5)-5--8-6-5---3-5-6--(6)----
g -2-2--2---1-1--1---2-2--2---2-2--2---2-2--2---4h(5)p(4)--------------------5--------------
d -2-2--2---2-2--2---2-2--2---0-0--0---2-2--2-----------------------------------------------
a -0-0--0---2-2--2---0-0--0------------0-0--0-----------------------------------------------
e ----------0-0--0--------------------------------------------------------------------------


F       G            C    (C-Am)
 abrazame una noche mas,

E                       Am
 que un amor imposible lo merece igual

E            Am
 quemate entre mis brazos

E            Am
 hundete entre mis brazos

E       Am
 atrevete a dejar salir

F                 G           C
 un deseo que se muere por vivir


                        Am

e ----------------------0--
b ----------------------1--
g ----------------------2--
d ----------------------2--
a -3-3-3-3-3-3-3-3-3-2--0--
e -------------------------
Suggest correction
Give kudos to tab author, rate the tab!
1 2 3 4 5
comments
print report bad tab
guest
You may want to rate the tab now too:
select rating
Wanna post a correction for this tab? Suggest correction