Oops, an error
Loading. Please wait.

Mujer Noche Tab

version 1
version 1

Whole song

134 views 3 this week
no commentswrite comment
1 2 3 4 5
3 more votes to show rating
add to favorites
launch autoscroll
font size
0
reset
how to read this tab
guitar tuner
×
Best way to learn
"Mujer Noche"
Autoscroll
slow
fast
+/-
esc
set tempo
stop
Este es la VERSION COMPLETA del anterior punteo que 
envie y que aparece actualmente en el atame.
Es facil de entender, ahí les va.

|55-3-1-1-3-1--------------------3---3----3---3|
|-------------3-1-----3---3---1----1----0---0--|
|-------------------0---0----------------------|
|----------------------------------------------|
|----------------------------------------------|
|----------------------------------------------|

|55-7-8-88-7-5-3--10--10---10-----|
|--------------------8---8----8~2-|
|---------------------------------|
|---------------------------------|
|---------------------------------|
|---------------------------------|

comentarios,criticas,pedidos,etc escriban
a luismi_4@
Suggest correction
Give kudos to tab author, rate the tab!
1 2 3 4 5
comments
print report bad tab
guest
You may want to rate the tab now too:
select rating
Wanna post a correction for this tab? Suggest correction