Oops, an error
Loading. Please wait.

Mujer Noche Tab

version 2
version 2

Whole song

66 views 1 this week
no commentswrite comment
1 2 3 4 5
3 more votes to show rating
add to favorites
launch autoscroll
font size
0
reset
how to read this tab
guitar tuner
Autoscroll
slow
fast
+/-
esc
set tempo
stop
Help us to improve Ultimate-Guitar.com Take our survey!
×
Versión del CD en vivo


     C           

e ---0----(o)------
b ---1----(1)------
g ---0----(0)------
d ---2----(2)------
a ---3----(3)------
e -----------------


PRE CORO :
 
        C                        Am   G  F
 Mujer Noche...te volvere a atrapa

                          G
 entre las sombras de tus ojos pude ver
 
        C           G            Am  G  F
 Mujer Noche ...te volvere a buscar

                        G
 entre sueños te converti en amanecer oh eh oh...


ESTROFA 1 :
 
  C           G             Am
 Se que me escuchas tan callada

          F             G                             C
 ves de reojo, luz pendiente de mis noches solitarias

           G            Am
 se que camino a tus espaldas

            F            G                      
 tu cuidas de tus pasos muy despacio y sin pisar en falso


PRE CORO :

        C                        Am   G  F
 Mujer Noche...te volvere a atrapa

                          G
 entre las sombras de tus ojos pude ver
 
        C           G            Am  G  F
 Mujer Noche ...te volvere a buscar

                        G
 entre sueños te converti en amanecer oh eh oh...


CORO :

  C       F       G            F      G
 Ciega y viiiiva de pasion entre mis redes

  C     F        G         F            G
 no podraaaas dejar atras lo que mas quieres

  C      F        G         F         G
   esta nooooche voy a ser cuando tu vuelves

  C      F           Am          E           G
   el rumoooor del viento que susurro a tus oidos
 
            F          C
   que solo eres para mi.

           C        G         (seguir con los acordes del pre coro)......Am-G-F-G-C-G-Am-G-F-G
    mujer noche...


 e-55-3-1-1-3-1--------------------3---3----3---3-
 b--------------3-1-----3---3---1----1----0---0---
 g-------------------0---0------------------------
 d------------------------------------------------
 a------------------------------------------------
 e------------------------------------------------

 e-55-7-8-88-7-5-3--10--10---10-------
 b---------------------8---8----8~(1)-
 g------------------------------------
 d------------------------------------
 a------------------------------------
 e------------------------------------


ESTROFA 2 :
  
     E             Am     F           C             E        A     F          C            G
      Que puedo hacer      coger tu pelo al viento  tu corazon     tomar tu mano y convertirte
 
e ----------------------------------------------------------------------------------------------
b ----------------------------------------------------------------------------------------------
g ----------------------------------------------------------------------------------------------
d ----------------------------------------------------------------------------------------------
a -----------------0--(0)------------3---(3)----------------0-(0)----------3----(3)-------------
e --0----------(0)-------1---(0)-------------------0--(0)---------1--(0)----------------3--(3)--


          F            C   
  de mis noches, la mujer.

 ---------------------------
b --------------------------
g --------------------------
d --------------------------
a ---------------------3----
e --------1----(1)----------


e --------------------0--0-----
b --------------------1--1-----
g --------------------0--0-----
d --------------------2--2-----
a --3-3---3-2-0-------3--3-----
e --------------3--------------


ESTROFA 3 :

  C         G         Am
 Suelta tu risa enamorada

          F           G
 nos robaron mañanas colmadas

      F           C
 de bromas sin palabras

                G       Am
 fuegos de un amor imposible

              F          G
 que ya no espera la distancia

       F             C
 del dia de su creacion.

PRE CORO :

      C                        Am   G  F
 Mujer Noche...te volvere a atrapar

                          G
 entre las sombras de tus ojos pude ver
 
        C           G            Am  G  F
 Mujer Noche ...te volvere a buscar

                       G
entre sueños te converti en amanecer oh eh oh...

CORO :

 C       F       G            F      G
Ciega y viiiiva de pasion entre mis redes

 C     F        G         F            G
no podraaaas dejar atras lo que mas quieres

 C      F        G         F         G
  esta nooooche voy a ser cuando tu vuelves

 C      F           Am          E           G
  el rumoooor del viento que susurro a tus oidos

         F          C
que solo eres para mi.


       C          G             Am              F
mujer noche...te volvere a atrapar...entre tus sombras pude ver

       C          G            Am             F
mujer noche...te volvere a buscar...si no puedes dormir muy bien

       C          G             Am             F
mujer noche...te volvere a atrapar...veras el sol salir, mujer

       C          G            Am             F          C     G       
mujer noche...te volvere a buscar...te converti en amaneceeeeeeeeer.


 (seguir con los acordes del pre coro)......Am-G-F-G-C-G-Am-G-F-G


 e-55-3-1-1-3-1--------------------3---3----3---3-
 b--------------3-1-----3---3---1----1----0---0---
 g-------------------0---0------------------------
 d------------------------------------------------
 a------------------------------------------------
 e------------------------------------------------

 e-55-7-8--88-7-5-3s10--10--10-10-s-0-
 b------------------------------------
 g------------------------------------
 d------------------------------------
 a------------------------------------
 e------------------------------------

     C           
 
 e --0-0---0-0--0----0----(o)------
 b --1-1---1-1--0----1----(1)------
 g --0-0---0-0--0----0----(0)------
 d --2-2---2-2--0----2----(2)------
 a --3-3---3-3--0----3----(3)------
 e --------------------------------


peticiones,comentarios,interes en formar grupos,etc....bracho_rhcp@
Suggest correction
Give kudos to tab author, rate the tab!
1 2 3 4 5
comments
print report bad tab
guest
You may want to rate the tab now too:
select rating
Wanna post a correction for this tab? Suggest correction