Oops, an error
Loading. Please wait.

Ni Por Un Segundo Tab

version 1
version 1

Whole song

34 views 1 this week
no commentswrite comment
1 2 3 4 5
3 more votes to show rating
add to favorites
×
Save as Personal and add changes to this tab that will be seen only by you. Learn more ›
×
You can save this tab as Personal to edit and correct it or add notes. All changes will be seen only by you. Learn more »
save as personal
new!
launch autoscroll
font size
0
reset
how to read this tab
guitar tuner
Autoscroll
slow
fast
+/-
esc
set tempo
stop
Ni por un segundo

Nota : tocar 'E' de la estrofa en el septimo traste con la sexta
cuerda y solo hasta la segunda cuerda.

Tocar los acordes arpegiandolos

b = bend


Intro :

C#m  (x4)

e -----------------
b --7-7---7--7--7--
g -----------------
d -----------------
a -----------------
e -----------------

C#5  (x4)

e --------------------------------------------------------------------------------------
b --------------------------------------------------------------------------------------
g --------------------------------------------------------------------------------------
d -7-(7)---7-6-6-----6-----9--7-6---6--7-7-(7)--7-7-7-7--6------7--6--------------------
a ---------------7-----7----------9------------------------9-7-------9-7-(7)s9-(9)---7--
e --------------------------------------------------------------------------------------


E (X2)

Estrofa:

E               F#          E
 De tu piel dormida no quedó un lugar
      C#m        E  F#            E             E
 dónde buscar calor... un lugar suave se va buscando se va


    E              F#           E
e ----------------------------------
b ----------------------------------
g ----------------------------------
d -------2-(2)---2-4--(4)--4-4s(2)--
a --2--4----------------------------
e ----------------------------------

E             F#         E           C#m          E
 El lado más duro de tu soledad has visto hoy te dijo que algún

  F#        E
 día algo bueno vendrá que tuya será

    E              F#
e ------------------------
b ------------------------
g ------------------------
d -------2-(2)---2-4--(4)-
a --2--4------------------
e ------------------------


Coro :

        B               G#m
 y tan solo te vas,tan solo te vas...(Riff)

e ---------------------
b ---------------------
g ---------------------
d ---------------------
a -----7---7-7-7-6-----
e -7-9--------------9--


 E           (D#m)   (C#m)       F#
...nunca  vas  a   estar  a  su lado

        B                 G#m         B
 y tan solo te vas...tan solo te vaaaaaaaas


e -----------------------------------------------------------------------------------
b -----------------------------------------------------------------------------------
g -----------------------------------------------------------------------------------
d -7-(7)---7-6-6-----6-----9--7-6---6--7-7-(7)--7-7-7-7--6------7--6-----------------
a ---------------7-----7----------9------------------------9-7-------9-7-(7)s9-(9)---
e -----------------------------------------------------------------------------------


G#m                    C#m         G#m
 Y buscando despiertas una vez más... lo que queda de un sueño

    C#m             F#        G#m            C#m
un solo recuerdo dejó fue su respiración su respiración

    E              F#
e -----------------------------9--s-(7)---
b ----------------------------11--s-(9)---
g ----------------------------11--s-(9)---
d -------2-(2)---2-4--(4)-----------------
a --2--4----------------------------------
e ----------------------------------------

E                F#         E              C#m             E
 sé que en tu razón nunca mia serás que de éste mundo me iré sin

   F#          E
tenerte ni por un segundo ni un segundo


    E              F#
e ------------------------
b ------------------------
g ------------------------
d -------2-(2)---2-4--(4)-
a --2--4------------------
e ------------------------


Coro :

        B               G#m
 y tan solo te vas,tan solo te vas...(Riff)

e ---------------------
b ---------------------
g ---------------------
d ---------------------
a -----7---7-7-7-6-----
e -7-9--------------9--


 E           (D#m)   (C#m)       F#
...nunca  vas  a   estar  a  su lado

        B                 G#m         B
 y tan solo te vas...tan solo te vaaaaaaaas


G#5-C#5-G#5-(C#5-C5-C#5-C5-C#5)

G#5-C#5 ...hasta el final


Durante el final:

                            |----x2----|
e ---------------------------------------
b ---------------------------------------
g -6b--(6)--6p(4)--6--(6)---6s(4)s6s(4)--
d --------------------------6s(4)s6s(4)--
a ---------------------------------------
e ---------------------------------------


e -------------------------------------------------------------------------
b ---------------9p(7)-----------------------------------------------------
g -(6)--4s(6)-8--------8-6h(8)p(6)-4-6--(6)--6s(4)s6s(4)----6-4-6-4-6-(6)--
d -------------------------------------------6s(4)s6s(4)----6-4-6-4-6-(6)--
a -------------------------------------------------------------------------
e -------------------------------------------------------------------------


e --------------------------
b --------------------------
g -6b--(6)--6p(4)--6--(6)---    ...Fin
d --------------------------
a --------------------------
e --------------------------


Comentarios,peticiones,interes en formar bandas, etc...(lima)...bracho_rhcp@
Suggest correction
Give kudos to tab author, rate the tab!
1 2 3 4 5
comments
print report bad tab
guest
Wanna post a correction for this tab? Suggest correction