Oops, an error
Loading. Please wait.

Ni Por Un Segundo Tab

version 2
version 2

Whole song

22 views 1 this week
no commentswrite comment
1 2 3 4 5
3 more votes to show rating
add to favorites
launch autoscroll
font size
0
reset
how to read this tab
guitar tuner
×
Best way to learn
"Ni Por Un Segundo"
Autoscroll
slow
fast
+/-
esc
set tempo
stop
OTRA GRAN CANCION DE MAR DE COPAS
ES BUENA Y ME GUSTA ESPERO QUE A UDS TAMBIEN
LO UNICO QUE TENGO QUE DECIR ES DE LA PARTE DEL SOLO
TALVEZ TENGA ALGUNOS ERRORES ESPERO QUE SEA SUFICIENTE PARA UDS

TITULO:        Ni por un segundo
GRUPO O ARTISTA: Mar de Copas(Lima-Peru)
TRANSCRITO POR:       Juan Pablo Condezo Diaz [jianqechcan@
FECHA:              Domingo, 24 de Octubre del 2004
PROCEDENCIA:        Huancavelica - Peru

                             ACORDES UTILIZADOS EN ESTA ROLA
                            =================================


   C#5        A5          E5         G#5         B5         F#5
\x===xx/   \====xx/    \o==xxx/    \======/    \x===xx/  \===xxx/
 |o||||IV   o|||||V     ||||||      o|||||IV    ||||||    ||||||
 ||||||     ||||||      |oo|||      ||||||      |o||||    o|||||
 ||oo||     |oo|||      ||||||      |oo|||      ||||||    ||||||
 ||||||     ||||||      ||||||      ||||||      ||oo||    |oo|||


   E          E9         F#         G#m          C#m
\======/   \======/   \======/    \======/    \x=====/
 |||o||     |||o||     ||||||      ooooooIV    |o||||IV
 |oo|||     |oo||o     oooooo      ||||||      ||||o|
 ||||||     ||||||     |||o||      |oo|||      ||oo||
 ||||||     ||||||     |oo|||      ||||||      ||||||


INTRO:

   C#5   C#5   C#5   C#5           C#5   C#5   C#5   C#5
e||----|-----|-----|-------------|-----|-----|-----|-----|
b||----|-----|-----|-7^-7^-7^-7^-|-----|-----|-----|-----|
g||----|-----|-----|-------------|-----|-----|-----|-----|
D||----|-----|-----|-------------|-----|-----|-----|-----|
A||----|-----|-----|-------------|-----|-----|-----|-----|
E||----|-----|-----|-------------|-----|-----|-----|-----|


    A5         C#5-E5 G#5-E5   B5
e||----------------------------------------------|
b||----------------------------------------------|
g||----------------------------------------------|
D||--7~~~~---7-7-6-6~~---6~~-----9~~~~~-7-6-4s6--|
A||-------------------7~~---7~~~-----------------|
E||----------------------------------------------|


    A5              C#5     E5    G#5   E5    B5
e||------------------------------------------------|
b||------------------------------------------------|
g||------------------------------------------------|
D||--6-7-7~~~-7-7-7-6h7-6~~--4---6h7-6~-4~-/4-4~~--|
A||----------------------------7~---------7--------|
E||------------------------------------------------|


       E9
e||--------2---2-22-2-22-2-------2-2-22-2-22-2-|
b||-------0----0-00-0-00-0------0--0-00-0-00-0-|
g||------1-----1-11-1-11-1-----1---1-11-1-11-1-|
D||-----2------2-22-2-22-2----2----2-22-2-22-2-|
A||----2---------------------2-----------------|
E||---0---------------------0------------------|


   E9              F#          G#m        C#m            E9
     De tu piel dormida no quedo un lugar donde buscar calor
e||---------2---------------2----------4-----------4---------------2--|
b||-----------------------------------------------5-------------------|
g||-------1----------------3----------4---------6-----------------1---|
D||-----2----------------4----------6---------6-----------------2-----|
A||---2----------------4----------6---------4-----------------2-------|
E||-0----------------2----------4---------------------------0---------|


   F#         G#m            C#m          E      F#
      Lugar suave y se va buscando se va
e||--------2----4----------------4--------------------------|
b||-------------4----------------5--------------------------|
g||-------3-----4----------------6--------------------------|
D||-----4------------------------6--------------------------|
A||---4--------------------------4----4-6-7--7s9-9-9s7-(7)--|
E||-2-----------4-------------------------------------------|


   E9            F#         G#m         C#m
    El lado mas duro de tu soledad has visto hoy
e||---------2------------2----------4-----------4----|
b||--------------------------------------------5-----|
g||-------1-------------3----------4---------6-------|
D||-----2-------------4----------6---------6---------|
A||---2-------------4----------6---------4-----------|
E||-0-------------2----------4-----------------------|


        E9             F#             G#m        C#m     E          F#
    Te dijo que algun dia algo bueno vendra que tuya sera
e||--------------2------------2---------4---------4---------------------|
b||-------------------------------------4---------5---------------------|
g||------------1-------------3----------4---------6---------------------|
D||----------2-------------4------------6---------6---------------------|
A||--------2-------------4--------------6---------4-------4-6-7--7s9--9-|
E||------0-------------2----------------4-------------------------------|


         B5              G#5
  Y tan solo te vas, tan solo te vas

       E5            C#5       F#5
       Nunca vas a estar a su lado
e||-------------------------------|
b||-------------------------------|
g||-------------------------------|
D||-------------------------------|
A||-4-6-7-(7)(7)-7--6-4-----------|
E||-------------------------------|

        B5              G#5     B5
   Tan solo te vas tan solo te vaaaaaaas

INSTRUMENTAL:  (ES IGUAL QUE EL INTRO)
==============


     A5         C#5-E5 G#5-E5   B5
e||----------------------------------------------|
b||----------------------------------------------|
g||----------------------------------------------|
D||--7~~~~---7-7-6-6~~---6~~-----9~~~~~-7-6-4s6--|
A||-------------------7~~---7~~~-----------------|
E||----------------------------------------------|


    A5              C#5     E5    G#5   E5    B5
e||------------------------------------------------|
b||------------------------------------------------|
g||------------------------------------------------|
D||--6-7-7~~~-7-7-7-6h7-6~~--4---6h7-6~-4~-/4-4~~--|
A||----------------------------7~---------7--------|
E||------------------------------------------------|


G#5                    C#5
 Y buscando despiertas una vez mas
G#5                           C#5            F#5
 Lo que queda de un sueño un solo recuerdo dejo
           G#5             C#5       E5     F#5
   Fue su respiracion, su respiracion
e||--------------------------------------------|
b||--------------------------------------------|
g||--------------------------------------------|
D||--------------------------------------------|
A||-------------------------------4-6-7--7s9-9-|
E||--------------------------------------------|


   E9            F#          G#m
    Se que tu razon... nunca mia seras
e||---------2------------2-------------4--|
b||----------------------2-------------4--|
g||-------1-------------3------------4----|
D||-----2-------------4------------6------|
A||---2-------------4------------6--------|
E||-0-------------2------------4----------|


       C#m            E9        F#          G#m            C#m       E        F#
   De este mundo me ire sin tenerte ni por un segundo, ni un segundo
e||----------4---------------2----------2----------4---------------4--------------|
b||---------5----------------------------------------------------5----------------|
g||-------6-----------------1----------3------------------------6-----------------|
D||-----6-----------------2----------4----------6-------------6-------------------|
A||---4-----------------2----------4----------6-------------4-------4-6-7--7s9-9--|
E||-------------------0----------2----------4-------------------------------------|

         B5              G#5
  Y tan solo te vas, tan solo te vas

       E5            C#5       F#5
       Nunca vas a estar a su lado
e||-------------------------------|
b||-------------------------------|
g||-------------------------------|
D||-------------------------------|
A||-4-6-7-(7)(7)-7--6-4-----------|
E||-------------------------------|

        B5              G#5     B5
   Tan solo te vas tan solo te vaaaaaaas


OUTRO: (ES ESTA PARTE ES LA QUE NO ENTIENDO BIEN MUCHAS COSAS
======  SOLO REPITAN LOS ACORDES DE SOL Y DO SOSTENIDOS NADA MAS)


    G#5                        C#5      G#5        C#5
e||---------------------------|--------|---------------------------|------------------------|
b||---------------------------|--------|---------------------------|------------------------|
g||-(1)h(4)--(1)h(4)--(1)h(4)-|--------|-(1)h(4)--(1)h(4)--(1)h(4)-|-5--5-/5-55--5--5-/5-55-|
D||---------------------------|--------|---------------------------|-5--5-/5-55--5--5-/5-55-|
A||---------------------------|--------|---------------------------|-4--4-/4-44--4--4-/4-44-|
E||---------------------------|--------|---------------------------|------------------------|


     G#5        C#5             G#5                   C#5
e||-------------|--------------|---------------------|------------------|
b||-2^^-2^^~~-2-|-2^~~---------|---------------------|---2b^-^^-------2/|
g||-------------|--------4-1-4-|-4-1-4-1~---4-1-4-1~-|(4)--------0h1br^-|
D||-------------|--------------|---------------------|------------------|
A||-------------|--------------|---------------------|------------------|
E||-------------|--------------|---------------------|------------------|


     G#5                         C#5              G#5              C#5
e||-------------4-2------------|-----------------|----------------|----------|
b||-4b^~~-4^~~------4-2-0h2-2b^|2br^~------------|----------------|----------|
g||----------------------------|--------4h6p4----|------4-1-4-1-4-|/6~~~~----|
D||----------------------------|-------------6-4h|6~~~------------|----------|
A||----------------------------|-----------------|----------------|----------|
E||----------------------------|-----------------|----------------|----------|


    G#5            C#5            G#5       C#5        G#5       C#5
e||---------------|--------------|---------|----------|---------|----------|
b||-2^^-2^^~~-2-0-|-2^~~~~~------|---------|----------|---------|----------|
g||---------------|--------------|---------|----------|---------|----------|
D||---------------|--------------|---------|----------|---------|----------|
A||---------------|--------------|---------|----------|---------|----------|
E||---------------|--------------|---------|----------|---------|----(4:50)|Fade out

                                                                            FIN

UN SALUDO PARA ICA PARA HUANCAVELICA
A TODOS LOS QUE ME CONOCEN
Y ...

                      ¡¡¡¡¡¡¡¡¡¡Y QUE VIVA EL ROOOOOOOOOCK!!!!!!!!!

                                                                     --==--
                                                                  º-|¤    ¤|-º
                                                                    | JiaN |
                                                                  º-|¤    ¤|-º
                                                                     \ __ /
                                                                      |__|
                                                                      |__|
                                                                      |__|
                                                                      |__|
\_  \_  \_  \_  \_  \_  \_  \_ \_  \_  \_  \_  \_  \_  \_             |__|
                                                                      |__|
\_\_\_\_\_   \_\_\_\_\_   \_\_\_\_\_    \_\_\_\_\_                    |__|
     \_       \_      \_   \_            \_        \_                 |__|
      \_       \_     \_    \_            \_        \_                |__|
       \_       \_\_\_\_     \_            \_        \_               |__|
        \_       \_           \_            \_       \_         __    |__|
         \_       \_           \_            \_      \_        /  \   |__|
  \_\_\_\_\_       \_           \_\_\_\_\_    \_\_\_\_         \   \__|__|    _
                                                                |     |__|\__/ \
  \_  \_  \_  \_  \_  \_  \_   \_  \_  \_  \_  \_  \_  \_  \_   |     ....     /
                                                                 \    ||||    |
                                                                 /    ....     \
                                                                /     ||||  \   \
                                                               |      .... o     |
                                                               |     [====] o    |
                                                                \         \_    /
                                                                 \_____________/
Suggest correction
Give kudos to tab author, rate the tab!
1 2 3 4 5
comments
print report bad tab
guest
You may want to rate the tab now too:
select rating
Wanna post a correction for this tab? Suggest correction