Oops, an error
Loading. Please wait.

Perdido Tab

version 1
version 1

Whole song

55 views 1 this week
no commentswrite comment
1 2 3 4 5
3 more votes to show rating
add to favorites
launch autoscroll
font size
0
reset
how to read this tab
guitar tuner
×
Best way to learn
"Perdido"
Autoscroll
slow
fast
+/-
esc
set tempo
stop
ACORDES:> G#m E B F# C#m D#m D#

Aki ls mando una transcripcion de sta cancion q sta bien buena ps
los acordes stan bien faciles y si kieren pueden sakr las estrofas
arpegiando las mismas notas n la 1º y 2º cuerda (y)

e------------------------------------------------------------------------4-
b-----------------------------8-8--6--5--4--4-4--2-2-2-2-----2-4~--------4-
g------------------------4-4--9-9--8--6--4--4-4----------3-4------4-3----4-
D-9h8-6--9h6-8--11h8-9~--6-6------------------------------------------6--6-
A------------------------------------------------------------------------6-
E------------------------------------------------------------------------4-

G#m                  E      B                   E          F#
 Hoy la vida de tu amor voló... me toca desesperar de tu amor la
   G#m                    C#m
 espera...hoy supe la verdad
                D#m                   C#m         F#        G#m
 hoy supe tu verdad...hoy la calma salió con el frío de invierno...ya
          C#m                 D#m    D#
 no puedo ver  ya no me encontré

      G#m     D#m      G#m      E          F#        C#m            D#m
Y no se..olvidar y no se..ya salir a caminar si en frío de este invierno
       G#m
me perdí
      G#m      D#m      G#m        E          B              C#m         F#
Y no se...olvidar y no se...sólo puedo recordar que en la bruma de tu vida
       G#m
me perdí

e------------------------------------------------------------------------4-
b-------------------------------8-8--6--5--4--4-4-2-2-2-2-----2-4~-------4-
g--------------------------4-4--9-9--8--6--4--4-4---------3-4------4-3---4-
D-9h8-6--9h6-8--11-8-9-6~--6-6-----------------------------------------6-6-
A------------------------------------------------------------------------6-
E------------------------------------------------------------------------4-

G#m                     E      B                     E           F#     G#m
 Hoy la vida de mi amor quedó...te toca desesperar de tu amor la espera
              C#m
 ya no se la verdad
               D#m                     C#m            F#     G#m
 ya no se tu verdad solo espero en que tu y a que tu amor vuelva ya no
      C#m                 D#m    D#
puedo ver ya no me encontré

      G#m     D#m      G#m      E          F#        C#m            D#m
Y no se..olvidar y no se..ya salir a caminar si en frío de este invierno
       G#m
me perdí
      G#m      D#m      G#m        E          B              C#m         F#
Y no se...olvidar y no se...sólo puedo recordar que en la bruma de tu vida
       G#m
me perdí

e------------------------------------------------------------------------4-
b------------------------------8-8--6--5--4---4-4--2-2------2-4~~--------4-
g-------------------------4-4--9-9--8--6--4---4-4-------3-4------4-3-4---4-
D-9h8-6--9h6-8--11h8-9~---6-6------------------------------------------6-6-
A------------------------------------------------------------------------6-
E------------------------------------------------------------------------4-

Y eso s too bien facil la cancion cualkier duda o alguna correccion me la
mandan a mi correo
Suggest correction
Give kudos to tab author, rate the tab!
1 2 3 4 5
comments
print report bad tab
guest
You may want to rate the tab now too:
select rating
Wanna post a correction for this tab? Suggest correction