Oops, an error
Loading. Please wait.

Perdido Tab

version 2
version 2

Whole song

33 views 1 this week
no commentswrite comment
1 2 3 4 5
3 more votes to show rating
add to favorites
launch autoscroll
font size
0
reset
how to read this tab
guitar tuner
Autoscroll
slow
fast
+/-
esc
set tempo
stop
Help us to improve Ultimate-Guitar.com Take our survey!
×
Perdido

sf = semi full,es decir 1/2 full
s  = slide
B  = bend


       G#5        D#5        G#5         E5           B5           D#5                    G5

e ---------------------------------------4-4--2-------------------------------------------------
b -----------------------2----------0-0--5-5--4--5----4-(4)---4-4--2-2------2-4b-(4)------------
g -4-3-1-(1)--4-1-3-(3)----3-4-(4)--1-1----------6sf--4-(4)---4-4-------3-4-----------4s3s1--(1)
d ----------------------------------------------------------------------------------------------
a ----------------------------------------------------------------------------------------------
e ----------------------------------------------------------------------------------------------


Arpegio : (tocarlo junto con la estrofa)

e -4-----4-------4-4-----4-----4-----4-------4-4-----4-----0-----0-----7-----7------7-7-----0----
b ---4-4---4-4-4-----4-4---4-4---4-4---4-4-4-----4-4---4-4---0-0---0-0---7-7--7-7-7-----7-7--0-0-
g -----------------------------------------------------------------------------------------------
d -----------------------------------------------------------------------------------------------
a -----------------------------------------------------------------------------------------------
e -----------------------------------------------------------------------------------------------

e -0-----2-----2-----4-----4-------4-4-----4-----4-----4-------4-4-----4-4-----6-----6------6---
b ---0-0---2-2---2-2---4-4---4-4-4-----4-4---4-4---4-4---4-4-4-----4-4-----4-4---7-7---7-7-7----
g ----------------------------------------------------------------------------------------------
d ----------------------------------------------------------------------------------------------
a ----------------------------------------------------------------------------------------------
e ----------------------------------------------------------------------------------------------

e -6-----6-----4------4----1-----1-4-----4-------4-4-----4-----4-----4-------4-----4------------
b ---7-7---7-7---4-4--4--2---2-2-----4-4---4-4-4-----4-4---4-4---4-4---4-4-4---4-4---4-4--------
g ----------------------------------------------------------------------------------------------
d ----------------------------------------------------------------------------------------------
a ----------------------------------------------------------------------------------------------
e ----------------------------------------------------------------------------------------------

e -7-7-7-7-7-7-7-7-7-7-7-7-7-7-7-7---
b -8-8-8-8-8-8-8-8-8-8-8-8-8-8-8-8---
g -8-8-8-8-8-8-8-8-8-8-8-8-8-8-8-8---
d -----------------------------------
a -----------------------------------
e -----------------------------------


ESTROFA :(con arpegio)


G#m                    E     B                    E          F#       G#m                   E
   Hoy la vida de tu amor volo... me toca desesperar de tu amor la espera...hoy supe la verdad

C#m                D#m                   E          F#        G#m                   E
   hoy supe tu verdad...hoy la calma salio con el frio de invierno...ya no...puedo ver

C#m                D#m    Eb
   ya no me encontre


CORO :

       G#5      D#5       G#5       E5        B5         C#5            D#5         G#5
Y no se... olvidar y no se... ya salir a caminar si en frio de este invierno me perdi

       G#5      D#5       G#5        E5        B5            C#5         D#5        G#5
Y no se... olvidar y no se... solo puedo recordar que en la rumba de tu vida me perdi


       G#5        D#5        G#5         E5           B5           D#5                    G5

e ---------------------------------------4-4--2-------------------------------------------------
b -----------------------2----------0-0--5-5--4--5----4-(4)---4-4--2-2------2-4b-(4)------------
g -4-3-1-(1)--4-1-3-(3)----3-4-(4)--1-1----------6sf--4-(4)---4-4-------3-4-----------4s3s1--(1)
d ----------------------------------------------------------------------------------------------
a ----------------------------------------------------------------------------------------------
e ----------------------------------------------------------------------------------------------


ESTROFA 2 :(con arpegio)


G#m                     E      B                  E          F#       G#m                   E
    hoy la vida de tu amor quedo...me toca deseperar de tu amor la espera...ya no se la verdad

C#m                 D#m                E          F#     G#m               E
    ya no se tu verdad solo se el que tu y que tu amor vuelva ya no puedo ver

C#m                 D#m   Eb
    ya no me encontre


CORO :

       G#5      D#5       G#5       E5        B5         C#5            D#5         G#5
Y no se... olvidar y no se... ya salir a caminar si en frio de este invierno me perdi

       G#5      D#5       G#5        E5        B5            C#5         D#5        G#5
Y no se... olvidar y no se... solo puedo recordar que en la rumba de tu vida me perdi


       G#5        D#5        G#5         E5           B5           D#5                    G5

e ---------------------------------------4-4--2-------------------------------------------------
b -----------------------2----------0-0--5-5--4--5----4-(4)---4-4--2-2------2-4b-(4)------------
g -4-3-1-(1)--4-1-3-(3)----3-4-(4)--1-1----------6sf--4-(4)---4-4-------3-4-----------4s3s1--(1)
d ----------------------------------------------------------------------------------------------
a ----------------------------------------------------------------------------------------------
e ----------------------------------------------------------------------------------------------
Suggest correction
Give kudos to tab author, rate the tab!
1 2 3 4 5
comments
print report bad tab
guest
You may want to rate the tab now too:
select rating
Wanna post a correction for this tab? Suggest correction