Oops, an error
Loading. Please wait.

Recuerdos De Una Noche Tab

14 views 3 this week
no commentswrite comment
1 2 3 4 5
3 more votes to show rating
add to favorites
launch autoscroll
font size
0
reset
how to read this tab
guitar tuner
×
Best way to learn
"Recuerdos De Una Noche"
Autoscroll
slow
fast
+/-
esc
set tempo
stop
J&R x 100pre...

Un saludo súper especial a mi banda: ASTAROTH
Bueno esta rola es una petición de los patas, aqui les va...

Aclaración: Va dedicada para las bandas 40 Nativos y 8 LEÑAS(dejen de joder
a nuestro batero psss   :p)

Intro:
    C                    E       F                          G
e|--------------------------------------------------------------|
B|--------------------------------------------------------------|
G|--------------------------------------------------------------|
D|-h10-10-10h12-10-12-10-9-9-10-12-10h12p10-10h9p10-10-9--------|
A|-------------------------------------------------------12-10v-|
E|--------------------------------------------------------------|
    C
e|-----------------------------------------------10s12-10v-8v-|
B|-------------9-10-12v-12-12-10h9p10-9-10-12s13--------------|
G|--------9-12------------------------------------------------|
D|-h10-12-----------------------------------------------------|
A|------------------------------------------------------------|
E|------------------------------------------------------------|

Verso 1:
C                     Em
Quiero recordar esta noche
   F                  G
momentos que no volverán
     C                Em
y hacer de aquellos poemas
F                       G
tristes como una oración

C                Em
Una oración que tiene mucho amor
             F                 G
como el que yo te tuve alguna vez
C                  Em
tanto amor que no puedo explicar
        F             G
porque ya no estas aquí
         C
junto a mi...
                   Em
como ayer en mis brazos
            F               C
mirando al cielo, la oscuridad
          F        G         C
y aquí estoy recordando tu amor.

(Repetir todo)

Solo:
e|----------------------------------------------|
B|----------------------------------------------|
G|-5-------------5-7-7s9v-9s7-7-5h7p5-----------|
D|-5-2-5-5h7-7-9----------------------7-5h3-2v--|
A|-3--------------------------------------------|
E|----------------------------------------------|

e|--------------------------8--------------------------|
B|---------------------8h10---10-8-6-----8h10p8--------|
G|-5-----------3-5h7h5---------------9-7--------9-7-5v-|
D|-5-3-4-5-3-5-----------------------------------------|
A|-3---------------------------------------------------|
E|-----------------------------------------------------|

Final:
e|-------------------------------------------------|
B|-------------------------------------------------|
G|-5-----3-5-3---------------------6-----5---------|
D|-5-3-5-------5-3-1-1h0-1-2-3-4-4---4-3---3-3-----|
A|-3-----------------------------------------3-----|
E|-------------------------------------------1-----|

Correciones, quejas e intercambios: pepe_blues@
Contratos de la banda: ghg14@
Suggest correction
Give kudos to tab author, rate the tab!
1 2 3 4 5
comments
print report bad tab
guest
You may want to rate the tab now too:
select rating
Wanna post a correction for this tab? Suggest correction