Oops, an error
Loading. Please wait.

Si Algo Asi Como El Amor Esta En Aire Chords

549 views 1 this week
no commentswrite comment
1 2 3 4 5
please rate
add to favorites
launch autoscroll
font size
0
reset
transpose
0
reset
display chords
guitar tuner
Autoscroll
slow
fast
+/-
esc
set tempo
stop
Help us to improve Ultimate-Guitar.com Take our survey!
×
Contributor
Difficulty
raphsoft 340
intermediate
Intro
      A     E    F#m      D     E    A      E     F#m
1|-------------------------------------------------|
2|5-3-2-3-2-0-2-0-------2-3-2-0-2-0-3/5-3-2-3-2-0-2|
3|----------------2---2----------------------------|

      D    E       F#m      D     E
1|---------------------------------|
2|--2-3-2-0-2--2(3)2------2-3-2-0-2|
3|2------------------2--2----------|

                     A
Como es la vida como es
      D             E
te encuentras destruido
    F#m        D         E        A   E
de nada te ha valido la vida como es
                      A
Luego el futuro de negó
    D           E
el mundo te gritaba
 F#m         D         E         A
ya no vales nada el futuro te negó

     E         F#m
Una joya como tú
      E         F#m
un regalo como tú
           D        E
que tiene nada que ver
                  F#m
con esto la realidad
        E           F#m
dime quien sabe querer
        E             F#m
a mis brazos se entregó
      D        E
no sería demasiado
                  F#m       E
y que bien se está a su lado

      A        F#m
1|--------------|
2|5-3-2--0-2-3-2|
3|--------------|
                
                  Bm
Cuanto dura ser feliz
       E      A
son segundos nada mas
      E          A
lo demás es caminar
                  D  Bm
por una vida sin ley
                 E
y agarrarlo al vuelo
                                    F#m  E
si algo asi como el amor esta en el aire

      A     E    F#m      D     E    A      E     F#m
1|-------------------------------------------------|
2|5-3-2-3-2-0-2-0-------2-3-2-0-2-0-3/5-3-2-3-2-0-2|
3|----------------2---2----------------------------|

      D    E       F#m      D     E
1|---------------------------------|
2|--2-3-2-0-2--2(3)2------2-3-2-0-2|
3|2------------------2--2----------|

                   A  D
Y todo tiene su final
                E     F#m
y yo te debo mi adios
                      D  E
es solo un gesto de amor
                       A  E
saber que hicimos sin mas
                     A  D
en que momento escribir
                   E  F#m
una carta en el adios
                    D  E
solo quiero un dia mas
                   A  E
o quizas que sean dos

                         F#m  E
Despues de un sueño tan largo
                    F#m  D
como la cura de un sueño
                     E
un sueño de los mas bellos
                  F#m  E
cada quien en su lugar
                     F#m  E
tu risa es la mejor risa
                     F#m  D
tu boca es la mejor boca
                 E
tu beso es el mejor beso
                  F#m  E
olvido el peor olvido.

      A        F#m
1|--------------|
2|5-3-2--0-2-3-2|
3|--------------|

                     Bm    E
A quien le importa una ley
                        A       E
a quien le importa un buen Dios
            A
nunca supe merecer
                   D Bm
las cosas que regaló
                    E
como un consuelo fugaz
                                    F#m
si algo asi como el amor esta en el aire

                  Bm  E
Con una mano me dió
                   A  E
con otra me lo quitó
                   A
siempre lo pude saber
                     D  Bm
que tienes que devolver
                   E
y no devuelvo sin mas
                                    F#m  E
si algo asi como el amor esta en el aire
                                    F#m  E
si algo asi como el amor esta en el aire

      A     E    F#m      D     E    A      E     F#m
1|-------------------------------------------------|
2|5-3-2-3-2-0-2-0-------2-3-2-0-2-0-3/5-3-2-3-2-0-2|
3|----------------2---2----------------------------|

      D    E       F#m      D     E ... A
1|---------------------------------|
2|--2-3-2-0-2--2(3)2------2-3-2-0-2|
3|2------------------2--2----------|
comments
We did not receive enough feedback on this tab! Please rate:
print report bad tab
1 2 3 4 5
I want to post or [tab]
guest
You may want to rate the tab now too:
select rating
Please do not post tabs as comments. Select "correction" instead!