Oops, an error
Loading. Please wait.

Viajo En Tu Piel Chords

version 1
version 1

Whole song

24 views 1 this week
no commentswrite comment
1 2 3 4 5
3 more votes to show rating
add to favorites
launch autoscroll
font size
0
reset
transpose
0
reset
display chords
guitar tuner
Autoscroll
slow
fast
+/-
esc
set tempo
stop
Help us to improve Ultimate-Guitar.com Take our survey!
×
luismi_@
Esta es mi versión personal y una CORRECIÓN tambien
de la versión publicada por Jorge Cuadra, en el archivo 
actual que aparece en el atame

(El error es la última nota que aparece como Em 
pero no me suena para nada) Por tanto aqui les va mi
versión

Intro: (Am C G F)-(Am C G F)...


Am              C           
 Viajo en tu piel
   G                 F                 
la distancia se adelgaza entre tu y yo
Am               C
viajo en tu piel
   G                 F                  Am-C-G-F
la distancia se adelgaza entre los dos.

Am             C
Hay noches que son 
G              F
demasiados largas si te vas
Am             C
hay noches que son 
G                F
demasiados largas si no estas.


Repetir.....

El punteo en el intro es:

(para hacerlo mas facil hazlo: presionando Am)

|--------0----------------|
|-----1-------------------|
|--2----------------------|
|-------------------------|
|-------------------------|
|-------------------------|

seguido de (presionando C)

|--------0----------------|
|-----1-------------------|
|--0----------------------|
|-------------------------|
|-------------------------|
|-------------------------|

seguido de(preionando G)

|--------3----------------|
|-----3-------------------|
|--0----------------------|
|-------------------------|
|-------------------------|
|-------------------------|

(presionando F)

|--------1----------------|
|-----1-------------------|
|--2----------------------|
|-------------------------|
|-------------------------|
|-------------------------|

si algo no te suena bien,o deseas hacer pedidos 
intercambios,etc escribeme en luismi_4@
y que viva Mar de Copas....
Suggest correction
Give kudos to tab author, rate the tab!
1 2 3 4 5
comments
print report bad tab
guest
You may want to rate the tab now too:
select rating
Wanna post a correction for this tab? Suggest correction