Oops, an error
Loading. Please wait.

Viejo Amor Nuevo Amor Tab

19 views 1 this week
no commentswrite comment
1 2 3 4 5
3 more votes to show rating
add to favorites
launch autoscroll
font size
0
reset
how to read this tab
guitar tuner
Autoscroll
slow
fast
+/-
esc
set tempo
stop
Help us to improve Ultimate-Guitar.com Take our survey!
×
Intro

1|---6---6-6-6--6---------------6---6-6-6--6------------------------|
2|---6---6-6-6--6---------------6---6-6-6--6------------------------|
3|---8---8-8-8--7---------------8---8-8-8--7------------------------|
4|---8---8-8-8--8---------------8---8-8-8--8---888888-----------3-5-|
5|---6---6-6-6--8---3/6-5-3-5---6---6-6-6--8---888888-3/6-5-3-5-1-3-|
6|---6---6-6-6--6-------------6-6---6-6-6--6---666666---------------|

C         F             A#..F
 Viejo amor... de cristal
D#        F           A# Am Gm F
 nuevo amor... que se va
D#       F           Cm Gm
 tu te vas y al partir
D#      F        Gm....
 mi razón ya se va.

D#       F               Gm
 Aún recuerdo las frías tardes
          Cm          Gm          Cm
 tus preguntas con silencio respondí
F                  Gm
 apoyado en tu ventana
          D#         F
 nadie quiere verte así
      A#    Am   Gm
 suplicando por amor
           Cm   F
 como comenzar
             A#   Am   Gm
 con los corazones rotos
      F          Gm              F
 de mañana por tus ojos que se van
          A#     Am        Gm       F   D#../F
 tu bien sabes que un día serás para mi.

F                           A# Am Gm
 Quien sabe si hay que empezar
G                           D# Dm Cm
 lo que un día hay que acabar
         F                A# Dm Gm
 que se pierde...con probar
        D#    Dm    Cm     A#     F
 un secreto de amor a primera vista
F                      A#
 si algo queda para amar
          F            A# Am Gm
 si algo queda para amar.
D# Dm Cm..F

A# Am Gm     |
             |>esto va hasta el final de los 3 solos
D# Dm Cm../F |


Solo 1
1|-------------------------------------------------------------------|
2|-------------------------------------------------------------------|
3|-7/8-8-8-8-8-8-7~8p7------5h7-8-8-7-5-7~~8~8-8-7~7-7-5~~5--5~--5---|
4|---------------------8~~8--------------------------------8----8-8~-|
5|----------------------------------------------------------8--------|
6|-------------------------------------------------------------------|

solo 2
1|------------------------------------------------|
2|------------------------------------------------|
3|------------------------------------------------|
4|-----------------3h5p3--------------------------|
5|-------1~-3~~-5~------5-1-3/5-3~-3-1-3~-1-3-1~--|
6|--3--3------------------------------1-----------|

solo 3
1|---------13-----------------------------------|
2|-13h15h16--15-13-13h15p13---------------------|
3|-------------------------15-12~-(12h15p12-10)-|
4|----------------------------------------------|
5|----------------------------------------------|
6|----------------------------------------------|

|-----------------------------------------------|
|-----------11-13-13-13^--13-11----13~11-13-11~~|
|----10h12~---------------------10--------------|
|-8h12------------------------------------------|
|-----------------------------------------------|
|-----------------------------------------------|

|-------------------11~11-11-10~10-10-8~-8-6---8-6-8-6~~||
|-11-11-10~10-10-8~--------------------------6----------||
|-------------------------------------------------------||
|-------------------------------------------------------||
|-------------------------------------------------------||
|-------------------------------------------------------||
Suggest correction
Give kudos to tab author, rate the tab!
1 2 3 4 5
comments
print report bad tab
guest
You may want to rate the tab now too:
select rating
Wanna post a correction for this tab? Suggest correction