Oops, an error
Loading. Please wait.

Viento Marchito Tab

11 views 1 this week
no commentswrite comment
1 2 3 4 5
3 more votes to show rating
add to favorites
×
Save as Personal and add changes to this tab that will be seen only by you. Learn more ›
×
You can save this tab as Personal to edit and correct it or add notes. All changes will be seen only by you. Learn more »
save as personal
new!
launch autoscroll
font size
0
reset
how to read this tab
guitar tuner
Autoscroll
slow
fast
+/-
esc
set tempo
stop
  Am      C                  Am     G
2|5-----5~~-5-------------------------
3|--7-5-------7-5-5/(7)---------------
4|----------------------7-5-7-----7-5-
5|-----------------------------7------
            Am    C            Am
5|------3-2----------------3----
6|0-3-5-----5-0-5-3--0-3-5---0-5

G                C
Una lluvia de color
B                      C
una estrella hecha de luz
                    D
una niña hecha de flor de mar
               Em
se puede marchitar
                    F
una brisa que al pasar
                      E
te estremece y te captura el alma y la hace suspirar

  Am      C                  Am     G
2|5-----5~~-5-------------------------
3|--7-5-------7-5-5/(7)---------------
4|----------------------7-5-7-----7-5-
5|-----------------------------7------

            Am    C            Am
5|------3-2----------------3----
6|0-3-5-----5-0-5-3--0-3-5---0-5

G                C
Una historia de color
B                      C
unos ojos de inquietud
                     D
Dando vueltas, su mirada así
             Em
a todo pone fin
                    F
disparando al sonreír
                    G
su sonrisa va hacia ti y te perfora el alma

C                G            Am
Dónde están las luces de un mirar
             G            C           G              Am F
Dónde la sonrisa que a cada paso inspiró cartas de amor
        E         Am  G E
Y tu vestido de flor

  Am            C      Am
2|5-----/-----------------------\   -----
3|--7-5-|-5-(7)-7+-5------------|x3 -----
4|------\------------7-5-7--7-7-/   -5-7-

G                C
Una lluvia de color
B                  C
un azul hecho del mar
                      D
una falda al viento y un andar
                Em
descalzo al caminar
                    F
se preguntan qué pasó
                    G
con su sueño y su rubor de niña

quién se los robó

C                G            Am
Dónde están las luces de un mirar
             G            C           G              Am F G
Dónde la sonrisa que a cada paso inspiró cartas de amor
C              G          Am
Dónde está la luz y su soñar
                 G             C            G            Am F
Dónde el viento que las marchitó y al no tenerlas las robó
        E         Am  G E
Y tu vestido de flor

  Am      C                  Am     G
2|5-----5~~-5-------------------------
3|--7-5-------7-5-5/(7)---------------
4|----------------------7-5-7-----7-5-
5|-----------------------------7------

            Am    C            Am
5|------3-2----------------3------
6|0-3-5-----5-0-5-3--0-3-5---0-5-- -5-5-5-3-5
Suggest correction
Give kudos to tab author, rate the tab!
1 2 3 4 5
comments
print report bad tab
guest
Wanna post a correction for this tab? Suggest correction