Oops, an error
Loading. Please wait.

Vuelve Conmigo Tab

35 views 1 this week
no commentswrite comment
1 2 3 4 5
3 more votes to show rating
add to favorites
×
Save as Personal and add changes to this tab that will be seen only by you. Learn more ›
×
You can save this tab as Personal to edit and correct it or add notes. All changes will be seen only by you. Learn more »
save as personal
new!
launch autoscroll
font size
0
reset
how to read this tab
guitar tuner
Autoscroll
slow
fast
+/-
esc
set tempo
stop
NI BIEN ESCUCHE ESTA CANCION ME ENAMORE DE ELLA Y ME GUSTO BASTANTE
LA VERDAD ES MUY BONITA ESCUCHENLA ¡ESTA BIEN CHEVERE!
SI TIENEN DUDAS ESCRIBANME Y LES RESPONDERE
SOLO CON RESPECTO A ESTE GRUPO, GRACIAS

AH EN LA PARTE DONDE DICE cm bm am dm TIENEN QUE TOCAR EL BAJO EN LA 5TA CUERDA
AUNQUE PUEDEN OBVIARLOS, NO HAY NINGUN PROBLEMA
LUEGO EN LA PARTE DONDE DICE Bm/Bbm/Am, ESTO SE HACE RAPIDO TIENEN QUE ESCUCHAR LA ROLA

TITULO:        VUELVE CONMIGO
GRUPO O ARTISTA: Mar de Copas (Perú)
TRANSCRITO POR:       Juan Pablo Condezo Diaz [jianqechcan@
PROCEDENCIA:        Huancavelica - Perú
FECHA:              Miercoles, 5 de Octubre del 2004

ACORDES UTILIZADOS EN ESTA ROLA
===============================

   Em         B7         Am       G          C        D
\------/   \------/   \------/ \------/  \------/ \------/
 ||||||     ||||||     ||||o|   ||||||    ||||o|   ||||||
 |oo|||     |ooooo     ||oo||   |o||||    ||o|||   |||o|o
 ||||||     ||||||     ||||||   o||||o    |o||||   ||||o|
 ||||||     ||o|o|     ||||||   ||||||    ||||||   ||||||

   C             Bm           Bbm        Am
\======/      \======/     \======/   \======/
 oooooo VIII   oooooo VII   oooooo VI  oooooo V
 |||o||        ||||||       ||||||     ||||||
 |oo|||        |oo|||       |oo|||     |oo|||
 ||||||        ||||||       ||||||     ||||||


INTRO:   E5  (todo el intro se toca con "Mi quinta")

e||---------------------------------------------------------------------|
b||-------------------------------------4h5-4---------------------------|
g||--------------------------4-----------------5-4-2-2h4----------------|
D||------5-4-5454--------5-7----4h5p4---------------------4-4h5-4-------|
A||----------------6-777--------------7---------------------------6-7---|
E||---------------------------------------------------------------------|

e||---------------------------------------------------------------------|
b||---------------------------------------------------------5-4---------|
g||-5-4------5-4-----5-4---5-4---5-4--------------------5-4------5-4-4--|
D||----------------------------------------4-5-4-5-4-5------------------|
A||-----6-77----6-77----6-----6-----6-777-------------------------------|
E||---------------------------------------------------------------------|

e||---------------------------------------------------------------------|
b||---------------------------------------------------------------------|
g||--4-4^5^5^-5^^-4--------5-4------5-4------5-4-----5-4----5-4---------|
D||---------------------------------------------------------------------|
A||------------------6-77-----6-77-----6-77------6-------6------6-7777--|
E||---------------------------------------------------------------------|

e||---------------------------------------------------------------------|
b||----------------------------------------------------5-4--------------|
g||--------------------------------------------------------4h5-4--------|
D||--5-4----5-4-------5-4----5-4--------5-4----5-4--------------4h5-4v~-|
A||------6------6-777-----6------6-777------6------6-7------------------|
E||---------------------------------------------------------------------|

Em            Am      B7               Em
 corazón donde estarás te vi andar tan lejos
Em                 Am    B7                Em
 donde estas donde andarás me dormí y partías
Em           Am             B7             Em
 cuanto vale el sol, cuanto tu dolor o el mío
Em            Am              B7          Em
 cuanto cuesta el mar vuelve por favor conmigo
G                 C   Am           Em    B7    Em
 corazón donde andarás te busque y no, y no, no te halle

     Em          C            Am              Em
e||--------------------------------------------------|
b||--------------------------------------------------|
g||----------2-4-5~~------5-4-2~-------4/7-/7--5-4~--|
D||--2-2-4-5-------------------------0---------------|
A||--------------------------------------------------|
E||--------------------------------------------------|

    Em               C                Am             D
e||-----------------------10-----12------------------------------|
b||--------------------------------------------------------------|
g||--4-5-7--9~~~-s7brs5-----5s7s9---7s5s4s2~~--2s4s5-7-7-7-7~~---|
D||--------------------------------------------------------------|
A||--------------------------------------------------------------|
E||--------------------------------------------------------------|

D        G           Em         Am
 amor, amor, amor, amor, amor, amor
                      C
 de tanto arar en el mar amor
                      Am     Cm Bm Am Dm
 mis manos ya no dan mas
D              G         Em              Am
 vuelta a ser yo, amor amor, un aire una ola
                      C
 de tanto arar en el mar amor
                       B7
 de tanto hallar en el mar dolor
                    D
 quisiera morir en paz
                  Em
 y no volver a soñar

   Em                C               Am     Em           Em          Em
e||---------------------------------------|-0-3-0-0-0~--|-0-3-0-0-0~--|-0-3-0~--|
b||---------------------------------------|-0-0-0-0-0~--|-0-0-0-0-0~--|-0-0-0~--|
g||-------------2-----------------2-------|-0-0-0-0-0~--|-0-0-0-0-0~--|-0-0-0~--|
D||---2-2-2-4-5---4-5~--2-2-2-4-5---5-4~--|-2-2-2-2-2~--|-2-2-2-2-0~--|-2-2-2~--|
A||---------------------------------------|-2-2-2-2-2~--|-2-2-2-2-0~--|-2-2-2~--|
E||---------------------------------------|-----0-0-0~--|-----0-0-0~--|-----0~--|

Em                Am   B7          Em
 corazón donde andarás, vuelve conmigo
Em                 Am      B7                Em
 donde estas donde estarás, por favor vuelve conmigo
G                 C  Bm/Bbm/Am         Em    B7       Em
 corazón donde andarás       te mire y no, y no, ya no eras tu

D        G           Em         Am
 amor, amor, amor, amor, amor, amor
                      C
 de tanto arar en el mar amor
                      Am     Cm Bm Am Dm
 mis manos ya no dan mas
D            G         Em               Am
 vuelta ser yo, amor amor, un aire una hora
                      C
 de tanto arar en el mar amor
                       B7
 de tanto hallar en el mar dolor
                    D
 quisiera morir en paz
                  Em
 y no volver a soñar

Final:

   Em                C               Am     Em           Em            Em             Em
e||---------------------------------------|-0-3-0-0-0~--|-0-3-0-0-0~--|-0-3-0-0-0~--|--3~--|
b||---------------------------------------|-0-0-0-0-0~--|-0-0-0-0-0~--|-0-0-0-0-0~--|--0~--|
g||-------------2-----------------2-------|-0-0-0-0-0~--|-0-0-0-0-0~--|-0-0-0-0-0~--|--0~--|
D||---2-2-2-4-5---4-5~--2-2-2-4-5---5-4~--|-2-2-2-2-2~--|-2-2-2-2-0~--|-2-2-2-2-0~--|--2~--|
A||---------------------------------------|-2-2-2-2-2~--|-2-2-2-2-0~--|-2-2-2-2-0~--|--2~--|
E||---------------------------------------|-----0-0-0~--|-----0-0-0~--|-----0-0-0~--|--0~--|
                                                                                           FIN


OTRA VEZ UN SALUDAZO PARA MIS PATAS DE HUANCAVELICA, A MI AMIGO ADRIAN
LOS "Z  V.I.P.": CRISTHIAN, HUGO, BRUCE, ROGER, OLIVER, VICO; NO CHUPEN MUCHO, JAJAAA
A MIS AMIGAS: VANIA, A LISSET, BRENDA Y SANDIBELL QUE LAS EXTRAÑO UN MONTON Y YA VOLVERE
A MIS AMIGOS DE ICA: MARIELLA, YULY, KARLA Y PAUL,
Y A LOS DE LA U.N. ICA CHARLES, OSCAR, DANIEL, LG Y TATA

A KATTY UNA CHICA MUY ESPECIAL, PRONTO VOLVERE CONTIGO


                            Y...

¡¡¡¡¡¡¡¡¡¡¡¡¡¡¡¡¡¡¡¡¡QUE VIVA EL ROCK PERUANO!!!!!!!!!!!!!!!!!!!!!!

                                                                        ___
                                                                      +|o o|+
                                                                      +|o o|+
\_  \_  \_  \_  \_  \_  \_  \_ \_  \_  \_  \_  \_  \_  \_               |_|
                                                                        |_|
\_\_\_\_\_   \_\_\_\_\_   \_\_\_\_\_    \_\_\_\_\_                      |_|
     \_       \_      \_   \_            \_        \_                   |_|
      \_       \_     \_    \_            \_        \_                  |_|
       \_       \_\_\_\_     \_            \_        \_                 |_|
        \_       \_           \_            \_       \_                 |_|
         \_       \_           \_            \_      \_              _  |_|  _
  \_\_\_\_\_       \_           \_\_\_\_\_    \_\_\_\_               \\_|_|_//
                                                                      | [_] |
  \_  \_  \_  \_  \_  \_  \_   \_  \_  \_  \_  \_  \_  \_  \_         | |_| |
                                                                     / -[_]- \
                                                                     \_______/
Suggest correction
Give kudos to tab author, rate the tab!
1 2 3 4 5
comments
print report bad tab
guest
Wanna post a correction for this tab? Suggest correction