Oops, an error
Loading. Please wait.

En Tu Sien Tab

9 views 1 this week
no commentswrite comment
1 2 3 4 5
3 more votes to show rating
add to favorites
launch autoscroll
font size
0
reset
how to read this tab
guitar tuner
Autoscroll
slow
fast
+/-
esc
set tempo
stop
Help us to improve Ultimate-Guitar.com Take our survey!
×
RIFF:
-----------------!---------------
----------7------!---------------
------6------6---!-----6---4L6-6-
--4-4---4--4---4-!-4-4---4-------
-----------------!---------------
-----------------!---------------
                X3


F#m               A              E
Una frase que se lleva al viento,
                                 F#m
lo envuelve, vuelve y nunca se pierde
         A    E   F#m
y busco mas...


F#m                    A          E
el horizonte es la cornisa imaginaria,
                F#m
un punto de llegada
          A   E   F#m
y busco mas...


C#m                  D
contengo la respiracion
C#m                   D
torno mis ojos hacia vos


------------------------------
------------------------------
------------------------------
------------------------------
------2-4-3-2-----------------
-2-5---------5----------------


F#m      A              E
y salto alto salto muy alto
        Bm
quiero caer como un rayo
D
impactar en tu sien

RIFF:
-----------------!---------------
----------7------!---------------
------6------6---!-----6---4L6-6-
--4-4---4--4---4-!-4-4---4-------
-----------------!---------------
-----------------!---------------
                X3
F#m                       A
No me interesa ni el estanque
         E
ni la resignacion
             F#m    A
prefiero ahogarme
       E
mar adentro


F#m      A           E
y busco mas, quiero mas
      F#m
dame mas...
F#m      A           E
y busco mas, quiero mas


------------------------------
------------------------------
------------------------------
------------------------------
------2-4-3-2-----------------
-2-5---------5----------------


F#m      A              E
y salto alto salto muy alto
        Bm
quiero caer como un rayo
D
impactar en tu sien

F#m      A              E
y salto alto salto muy alto
        Bm
quiero caer como un rayo
D
impactar en tu sien

F#m      A              E
y salto alto salto muy alto
        Bm
quiero caer como un rayo
D
impactar en tu sien

SOLO:

------------------------------
------------------------------
----14-16-16b18rb16-14--------
-16--------------------16-----
------------------------------
------------------------------
                            x2

--------------------------------14----------------------
-----------------------------14----17-14----------------
----14-16-16b18rb16-14-16b18----------------16--14------
-16------------------------------------------------16---
--------------------------------------------------------
--------------------------------------------------------


------------------------------
------------------------------
----14-16-16b18rb16-14--------
-16--------------------16-----
------------------------------
------------------------------

--------------------------------
-----------------------------17-
----14-16-16b18rb16-14-16b18----
-16-----------------------------
--------------------------------
--------------------------------


--------------------------------------- !
--------------14-------12L14-14-------- !
-11-11-11-11-----11-11----------------- !
--------------------------------------- !
--------------------------------------- !
--------------------------------------- !
                                        !
--------------------------------------- !
--------------14-------12L14-14-------- !
-------11-11-----11-11----------------- !
--------------------------------------- !
--------------------------------------- !
--------------------------------------- !
                                 x2     !
                                        !
---------------------------------       !
-12-10-9-10-9L10L9---------------       !
-------------------11-9----------       !
------------------------11-------       !
---------------------------------       !
---------------------------------       !x2

CLIMA:

F#m E D D


F#m      A              E
y salto alto salto muy alto
        Bm
quiero caer como un rayo
D
impactar en tu sien

F#m      A              E
y salto alto salto muy alto
        Bm
quiero caer como un rayo
D
impactar en tu sien

F#m      A              E
y salto alto salto muy alto
        Bm
quiero caer como un rayo
D
impactar en tu sien


F#m E D D
Suggest correction
Give kudos to tab author, rate the tab!
1 2 3 4 5
comments
print report bad tab
guest
You may want to rate the tab now too:
select rating
Wanna post a correction for this tab? Suggest correction