Oops, an error
Loading. Please wait.

Todo Mi Mar Tab

13 views 3 this week
no commentswrite comment
1 2 3 4 5
3 more votes to show rating
add to favorites
launch autoscroll
font size
0
reset
how to read this tab
guitar tuner
Autoscroll
slow
fast
+/-
esc
set tempo
stop
Help us to improve Ultimate-Guitar.com Take our survey!
×
INTRO:
                                              -
    Bb5      C#5      C5     F5              |
1:------------------------------------------ |
2:------------------------------------------ |
3:--3--3---6--6--6---5--5---10--10---------- |
4:--3--3---6--6--6---5--5---10--10---------- |
5:--1--1---4--4--4---3--3---8---8----------- |
6:------------------------------------------ |
                                             |
                                            -| X3
    Bb5      C#5      C5                     |
1:------------------------------------------ |
2:------------------------------------------ |
3:--3--3---6--6--6---5--()------------------ |
4:--3--3---6--6--6---5--()------------------ |
5:--1--1---4--4--4---3--()------------------ |
6:------------------------------------------ |
                                              -

    Bb5      C#5      C5     F5
1:------------------------------------------
2:------------------------------------------
3:--3--3---6--6--6---5--5---10--10----------
4:--3--3---6--6--6---5--5---10--10----------
5:--1--1---4--4--4---3--3---8---8-----------
6:------------------------------------------

    Bb5      C#5        C5    Bb5
1:------------------------------------------
2:-------------------V-V-V-V----------------
3:--3--3---6--6--6---5-5-5-5---3------------
4:--3--3---6--6--6---5-5-5-5---3------------
5:--1--1---4--4--4---3-3-3-3---1------------
6:------------------------------------------


Bb5
El cielo azul desaparece
                    F#
En segundos como un rayo.
Bb5
La sombra del viento aúlla
              F#
Eterna por su amada


Bb5
Las estrellas brillan mucho más,
                 F#
Hacia un aquelarre  van a dejar
Bb5
Que el frio cobije,
           F#
cobije su soledad.


Bb5
Sos todo mi sol
            F#
Sos todo mi mar
            E
Sos todo mi mal.


-----------------------------------------------------
-----------------------------------------------------

ACLARACIÓN: Advierto que CREO que a la hora de
tocarse en vivo en el Live Session en la Sala,
se han transportado los acordes medio tono abajo
quedando de la siguiente manera:

INTRO: (A5 - C5 - B5 - E5) - (A5 - C5 - B5) X3
       (A5 - C5 - B5 - E5) - (A5 - C5 - B5 - A5)

VERSOS: (A5 - F)

ESTRIBILLO: (A5 - F - D#)
Suggest correction
Give kudos to tab author, rate the tab!
1 2 3 4 5
comments
print report bad tab
guest
You may want to rate the tab now too:
select rating
Wanna post a correction for this tab? Suggest correction