Oops, an error
Loading. Please wait.

Un Animal Tab

19 views 1 this week
no commentswrite comment
1 2 3 4 5
2 more votes to show rating
add to favorites
launch autoscroll
font size
0
reset
how to read this tab
guitar tuner
Autoscroll
slow
fast
+/-
esc
set tempo
stop
Help us to improve Ultimate-Guitar.com Take our survey!
×
------------------------------------
------------------------------------
-----4---------4---------------4----
---6---6-----4--------6------4---4--
-6---------4--------7---7--4--------
------------------0-----------------
G#m        F#sus  E        F#sus


----------------------------------
--------------------------5-------
-----4---------4--------4---------
---6---6-----4--------6-----------
-6---------4--------7-------------
------------------0---------------
G#m        F#sus  E


--------------------------------
--------------------------------
--------------------------------
-6-6-4-4--2--4------6-6-4-4--2--
-6-6-4-4--2--4------6-6-4-4--2--
-4-4-2-2--0--2------4-4-2-2--0--


G#m    F#m   E   F#m   G#m    F#m   E
Soy un animal acorralado
G#m    F#m   E   F#m   G#m    F#m   E
Soy un animal desenfrenado...


G#m      F#m   E   F#m    G#m        F#m      E
Cruzaste la delgada linea q hay entre mi y el mal
G#m      F#m   E   F#m    G#m        F#m      E
Cruzaste la delgada linea q hay entre el sol y el mar...


C#m              G#m    F#m       E
Por instinto te devoraria hasta el final
C#m              G#m    F#m       E
Por instinto de devoraria


G#m    F#m   E   F#m   G#m    F#m   E
Soy un animal acorralado en la selva
G#m    F#m   E   F#m   G#m    F#m   E
Soy un animal desenfrenado entre rejas...


------------------------------------
------------------------------------
-----4---------4---------------4----
---6---6-----4--------6------4---4--
-6---------4--------7---7--4--------
------------------0-----------------
G#m        F#sus  E        F#sus


----------------------------------
--------------------------5-------
-----4---------4--------4---------
---6---6-----4--------6-----------
-6---------4--------7-------------
------------------0---------------
G#m        F#sus  E


G#m    F#m     E   F#m  G#m      F#m
Dando vueltas infinitas calmo mi ansiedad
G#m   F#m   E      F#m     G#m      F#m      E
Procesan en mi remolinos internos y resignacion...


G#m    F#m   E   F#m   G#m    F#m   E
Soy un animal acorralado en la selva
G#m    F#m   E   F#m   G#m    F#m   E
Soy un animal desenfrenado entre rejas...


C#m              G#m    F#m       E
Por instinto te devoraria hasta el final
C#m              G#m    F#m       E
Por instinto de devoraria


SOLO:
---------------------------------------------------
---------------------------------------------------
--------8-----------8-9-8----13-15-16--------------
--6-8-9---6-8-9---9--------------------------------
---------------------------------------------------
---------------------------------------------------


G#m    F#m   E   F#m   G#m    F#m   E
Soy un animal acorralado en la selva
G#m    F#m   E   F#m   G#m    F#m   E
Soy un animal desenfrenado entre rejas...
Suggest correction
Give kudos to tab author, rate the tab!
1 2 3 4 5
comments
print report bad tab
guest
You may want to rate the tab now too:
select rating
Wanna post a correction for this tab? Suggest correction