Oops, an error
Loading. Please wait.

Verdugo Chords

12 views 1 this week
no commentswrite comment
1 2 3 4 5
3 more votes to show rating
add to favorites
×
Save as Personal and add changes to this tab that will be seen only by you. Learn more ›
×
You can save this tab as Personal to edit and correct it or add notes. All changes will be seen only by you. Learn more »
save as personal
new!
launch autoscroll
font size
0
reset
transpose
0
reset
simplify chords
display chords
guitar tuner
Autoscroll
slow
fast
+/-
esc
set tempo
stop
Strumming
There is no strumming pattern for this song yet. and get +5 IQ
RECOMENDACIÓN: TOCAR ACORDES EN QUINTAS (5°)


INTRO:  Em (X4) - Em C A (X4)


VERSO:
Em
Desatare mis serpientes
C           A
Mirare fijo a tus ojos.
Em
Esta noche voy
C   A
por ti
Ataca mientras puedas,
Para mis palabras,
Para el viento que
lleva mi voz.


ESTRIBILLO:
G      A                 Em + RIFF
O seré verdugo de tu infamia
G     A               Em
Seré verdugo con mi voz.


VERSO:
Jalare la soga que a tu cuello abraza
Hasta que no te queden ganas de respirar.
Ataca mientras puedas
Para mis guitarras.
Para el viento que
lleva mi distorsión.


ESTRIBILLO:
G      A                 Em + RIFF
O seré verdugo de tu infamia
G     A               Em - E5 7° - Em - E5 7°
Seré verdugo con mi voz.
G      A                 Em + RIFF
O seré verdugo de tu infamia
G     A               Em
Seré verdugo con mi voz.


PRE-SOLO

SOLO:

    V  V  V  V  V   V   V   V   V   V   V
1:--7--7--7--7--10--10--10--10--12--10--12--
2:------------------------------------------
3:------------------------------------------
4:------------------------------------------
5:------------------------------------------
6:------------------------------------------

    V  V  V  V  V   V   V   V   V   V   V
1:--7--7--7--7--10--10--10--10--12--14--12--
2:------------------------------------------
3:------------------------------------------
4:------------------------------------------
5:------------------------------------------
6:------------------------------------------

    V  V  V  V  V   V   V   V   V   V   V
1:--7--7--7--7--10--10--10--10--12--10--12--
2:------------------------------------------
3:------------------------------------------
4:------------------------------------------
5:------------------------------------------
6:------------------------------------------

    V  V  V  V  V   V   V   V   V   V   V
1:--7--7--7--7--10--10--10--10--12--14--12--
2:------------------------------------------
3:------------------------------------------
4:------------------------------------------
5:------------------------------------------
6:------------------------------------------


ESTRIBILLO:
G      A                 Em + RIFF
O seré verdugo de tu infamia
G     A               Em - E5 7° - Em - E5 7°
Seré verdugo con mi voz.
G      A                 Em + RIFF
O seré verdugo de tu infamia
G     A               Em
Seré verdugo con mi voz.

G            A
Seré caníbal hasta que entiendas
G            A
Que mi voz es tu voz.
G            A
Seré caníbal hasta que entiendas
G            A
Que mi voz es tu voz.
G            A
Que mi voz es tu voz.
G             A          RIFF X3 - Em
Que mi vooooz es tu voz.


--------------------------------------------------
--------------------------------------------------

RIFF:
1:------------------------------------------
2:------------------------------------------
3:------------------------------------------
4:------------------------------------------
5:--7--5--------------7--5------------------
6:--------7--5--3--5--------7--5--3--5------
Suggest correction
Give kudos to tab author, rate the tab!
1 2 3 4 5
comments
print report bad tab
guest
Wanna post a correction for this tab? Suggest correction