Oops, an error
Loading. Please wait.

Redesign Tab

1,100 views 3 this week
4 commentsread comments
1 2 3 4 5
excellent!
x 3
add to favorites
launch autoscroll
font size
0
reset
how to read this tab
guitar tuner
Autoscroll
slow
fast
+/-
esc
set tempo
stop
Help us to improve Ultimate-Guitar.com Take our survey!
×
Author
Redesign by Marble Sounds

Intro and verses! Sorry, haven't figured out the chorus or bridge yet :/

[Intro]
G---------4-----------------1-------------1------------------------|
D-----2------2-----2-----2---------1--------1----2----4p2----2-----|
A--4----4-------0----------------2----2-------0----0-------0-------|
E----------------------0-------------------------------------------|

G--------4-----------------1------------1------------------|
D----2------2-----2----2---------1-------1-----2-----------|
A--4---4-------0---------------2----2-------0-----0--------|
E--------------------0-------------------------------------|

Are we done with the others? Can we make this work?
G---------4-----------------1-------------1------------------------|
D-----2------2-----2-----2---------1--------1----2----4p2----2-----|
A--4----4-------0----------------2----2-------0----0-------0-------|
E----------------------0-------------------------------------------|

You control all my muscles. Can you bend my
G--------4-----------------1------------1------------------|
D----2------2-----2----2---------1-------1-----2-----------|
A--4---4-------0---------------2----2-------0--------------|
E--------------------0-------------------------------------|

Arm? And take the glasses from my eyes and kick off
G-------2------4-------4--------2----------|
D-----2------4-------4--------2------------|
A---0------0-------------------------------|
E------------------4--------2--------------|

My entire but efficient redesign
G-------2------4-------4-------------------|
D-----2------4-------4---------------------|
A---0------0-------------------------------|
E------------------4--------2--------------|

[Break]

G---------4-----------------1-------------1-----------------------|
D-----2------2-----2-----2---------1--------1----2----4p2---2-----|
A--4----4-------0----------------2----2-------0----0-------0------|
E----------------------0------------------------------------------|

G--------4-----------------1------------1---------------|
D----2------2-----2----2---------1-------1-----2--------|
A--4---4-------0---------------2----2-------0-----0-----|
E--------------------0----------------------------------|

Are we done with the others or will we get that far?

G---------4-----------------1-------------1-----------------------|
D-----2------2-----2-----2---------1--------1----2----4p2---2-----|
A--4----4-------0----------------2----2-------0----0-------0------|
E----------------------0------------------------------------------|

I can wait til tomorrow and take a flying
G--------4-----------------1------------1------------------|
D----2------2-----2----2---------1-------1-----2-----------|
A--4---4-------0---------------2----2-------0--------------|
E--------------------0-------------------------------------|

Start. Behavior comes in different kinds and I chose
G-------2------4-------4--------2----------|
D-----2------4-------4--------2------------|
A---0------0-------------------------------|
E------------------4--------2--------------|


Mine. For this long but efficient redesign.

G-------2------4-------4-------------------|
D-----2------4-------4---------------------|
A---0------0-------------------------------|
E------------------4--------2--------------|

All your feelings they reside in a bucket next to mine
And the dice they decide whether we go left or right
I am cutting memories so i can filter all my fears
And i wouldn't be surprised if you understand me now somehow


Are we done with the others? Type the secret lines

G---------4-----------------1-------------1-----------------------|
D-----2------2-----2-----2---------1--------1----2----4p2---2-----|
A--4----4-------0----------------2----2-------0----0-------0------|
E----------------------0------------------------------------------|

Can you skip all my sorrows and get my accent
G--------4-----------------1------------1----------------|
D----2------2-----2----2---------1-------1-----2---------|
A--4---4-------0---------------2----2-------0------------|
E---------------------0----------------------------------|

right? Erase the troubles on my mind and render
G-------2------4-------4--------2----------|
D-----2------4-------4--------2------------|
A---0------0-------------------------------|
E------------------4--------2--------------|

my entire but efficient redesign

G-------2------4-------4-------------------|
D-----2------4-------4---------------------|
A---0------0-------------------------------|
E------------------4--------2--------------|
Suggest correction
What's this?
You can suggest a correction to this tab. Community and Mods will review your correction and vote to approve or reject it.
comments
We did not receive enough feedback on this tab! Please rate:
print report bad tab
1 2 3 4 5
4 comments total. Showing first comments.
0 reply
Dankovics 202 wrote on March 6 2013, 04:35 pm

Thank you! Very good work!

0 reply
Dankovics 202 wrote on March 6 2013, 04:38 pm

Btw that 4h2 souldn't be 4p2?
Because it's a pull-off, you can't hammer-on from the fourth fret to the second.
Correct me if I said it wrong.

0 reply
Dankovics 202 wrote on March 6 2013, 04:38 pm

Btw that 4h2 souldn't be 4p2?
Because it's a pull-off, you can't hammer-on from the fourth fret to the second.
Correct me if I said it wrong.

guest
You may want to rate the tab now too:
select rating
Please do not post tabs as comments. Select "correction" instead!