Oops, an error
Loading. Please wait.

Sky High tab

816 views 3 this week
2 commentsread comments
1 2 3 4 5
2 more votes to show rating
add to favorites
×
Save as Personal and add changes to this tab that will be seen only by you. Learn more ›
×
You can save this tab as Personal to edit and correct it or add notes. All changes will be seen only by you. Learn more »
launch autoscroll
font size
0
reset
how to read this tab
guitar tuner
edit
Autoscroll
slow
fast
+/-
esc
set tempo
stop
-------------------------------------------------------------------------------
                             SKY HIGH - Marble Sounds
-------------------------------------------------------------------------------
This is the version Pieter usually plays live


Tuning: Standard



Intro/verse:  (The studio version's verse is a variation of this one.)
e|-------------------------|--------------------------|-------------------------|-------------| 
B|-------3-----------3-----|-------3-----------3------|-------1-----------1-----|-------0-----|
G|-----0-----0-----0-----0-|-----0-----0-----0-----0--|-----0-----0-----0-----0-|-----0-----0-|
D|---------0-----------2---|---------2-----------0----|---------2-----------0---|---------0---|
A|-------------------------|-------------2------------|-3-----------0-----------|-2-----------|
E|-3-----------0-----------|-0------------------------|-------------------------|-------------|

e|--------------|
B|------0----1--|
G|-2------------|
D|--------------|
A|-----------0--|
E|-2----3-------|

e|-------------------------|--------------------------|-------------------------|-------------| 
B|-------3-----------3-----|-------3-----------3------|-------1-----------1-----|-------0-----|
G|-----0-----0-----0-----0-|-----0-----0-----0-----0--|-----0-----0-----0-----0-|-----0-----0-|
D|---------0-----------2---|---------2-----------0----|---------2-----------0---|---------0---|
A|-------------------------|-------------2------------|-3-----------0-----------|-2-----------|
E|-3-----------0-----------|-0------------------------|-------------------------|-------------|

e|--------------|
B|-------3------|
G|-----2-----2--|
D|-0-------0----|
A|--------------|
E|--------------|

There's always a pause after each of the bass notes.



Bridge:
   Sky - high   hundreds of - stories      into the - clouds
e|------------|----------------------|---|-------------------|
B|------------|----------------------|---|-------------------|
G|-7-----9----|-4-------------5------|-2-|-4----------5------|  x2
D|------------|----------------------|---|-------------------|
A|-5-----7----|-2-------------3------|-0-|-2----------3------|
E|------------|----------------------|---|-------------------|

Keyboard part:
e|------10---8-7---5-------2-0---------|
B|-10-8--------------8-7---------5-3---|
G|---------9-----7-------5-----5-------|  This is only the melody
D|-------------------------------------|  I don't know the key.
A|-------------------------------------|
E|-------------------------------------|

Then repeat verse till end


************************************

| /   slide up
| \   slide down
| h   hammer-on
| p   pull-off
| ~   vibrato
| +   harmonic
| x   Mute note
| b   Bend
| pb  Pre-bend
| br  Bend release
| pbr Pre-bend release
| brb Bend release bend

************************************
Suggest correction
Creating personal tab
Creating personal tab
You can edit any tab online and save it as your Personal.

You can edit, replace or remove any tab part or add personal notes – all changes will be seen only by you.

Personal tabs can be accessed anytime from any device, even offline.
Learn more »
Give kudos to tab author, rate the tab!
1 2 3 4 5
comments
print report bad tab
2 comments total.
0 reply
brettbarritt 10 Nov 17, 2013 02:36 PM

i believe the part at the end the first part of the intro verse, is e|--------------|
B|------0----1--|
G|-2------------|
D|--------------|
A|-----------0--|
E|-2----3-------|

with F# root note not E

guest
You may want to rate the tab now too:
select rating
Wanna post a correction for this tab? Suggest correction