Oops, an error
Loading. Please wait.

Cambio De Piel Tab

548 views 9 this week
no commentswrite comment
1 2 3 4 5
3 more votes to show rating
add to favorites
launch autoscroll
font size
0
reset
how to read this tab
guitar tuner
Autoscroll
slow
fast
+/-
esc
set tempo
stop
Help us to improve Ultimate-Guitar.com Take our survey!
×
(VERSIÓN SALSA DE LA MELODÍA PARA GUITARRA)

INTRO:
E|------------------------1-0----------------------|
B|----0-1----0-1----1-s-3-----3-1----0-1----0-1-1v-|
G|-0-------------0----------------0----------------|
D|--------3------------------------------3---------|
A|-------------------------------------------------|
E|-------------------------------------------------|

ESTROFAS 1:
Llegaste a mí como un sol
Despejando el cielo gris
Y tu luz alumbró
E|--------------------1-0--------------------|
B|---0-1---0-1----1-3------3-1---0-1---0-1---|
G|-0-----------0---------------0-----------0-|
D|-------3---------------------------3-------|
A|-------------------------------------------|
E|-------------------------------------------|

Donde nadie pudo entrar,
Donde había oscuridad
Ahora estás tú
E|-----1-0---------------------------------|
B|-1-3-----3-1-1--1-1-3-1-0----------0-3-3-|
G|--------------------------0-2--0-2-------|
D|-----------------------------------------|
A|-----------------------------------------|
E|-----------------------------------------|

Todo es perfecto en verdad,
Nada tengo que inventar
Eres vida, eres más
E|--------------------1-0--------------------|
B|---0-1---0-1----1-3------3-1---0-1---0-1---|
G|-0-----------0---------------0-----------0-|
D|-------3---------------------------3-------|
A|-------------------------------------------|
E|-------------------------------------------|

De lo que siempre soñé
Necesito de tu fe
Para entender
E|-----1-0-------------------------------|
B|-1-3-----3-1-1--1-1-3-1-0--------0-3-3-|
G|--------------------------0-2--0-------|
D|---------------------------------------|
A|---------------------------------------|
E|---------------------------------------|

CORO:
Cómo me cambio de piel...el...el...
Y cómo vuelvo a nacer...er...er...
E|-1-1-1-1-0---0----------1-1-1-1-0---0-------|
B|-----------3----3--1--1-----------3----3--1-|
G|--------------------------------------------|
D|--------------------------------------------|
A|--------------------------------------------|
E|--------------------------------------------|

Cómo le puedo explicar al corazón
Que no hay peligro al creer en este amor
E|-3-3-3-3-1-0-1-1-0-0----3-3-3-3-1-0-1-1-0-0---|
B|---------------------3----------------------3-|
G|----------------------------------------------|
D|----------------------------------------------|
A|----------------------------------------------|
E|----------------------------------------------|

Cómo se puede romper...er...er...
El miedo eterno a caer...er...er...
E|-1-1-1-1-0---0----------1-1-1-1-0---0-------|
B|-----------3----3--1--1-----------3----3--1-|
G|--------------------------------------------|
D|--------------------------------------------|
A|--------------------------------------------|
E|--------------------------------------------|

Cómo le puedo enseñar a la razón
que equivocarse es humano
y es necesario el dolor
E|-3-3-3-3-1-0-1-1-0-0----3-3-3-3-1-0-1-1--1-1-1-1-------|
B|---------------------3---------------------------0-3-1-|
G|-------------------------------------------------------|
D|-------------------------------------------------------|
A|-------------------------------------------------------|
E|-------------------------------------------------------|

Ven ayúdame a aprender?(eer?) cómo me cambio de piel
E|----------------------------1-1-1-1-------|
B|-0-1-3-1-0--------------------------0-3-1-|
G|-----------0-2-(0-h-2-p-0)----------------|
D|------------------------------------------|
A|------------------------------------------|
E|------------------------------------------|

ESTROFAS 2:
Perdóname si no sé
Caminar sin tropezar
Es difícil burlar
E|--------------------1-0--------------------|
B|---0-1---0-1----1-3------3-1---0-1---0-1-1-|
G|-0-----------0---------------0-------------|
D|-------3---------------------------3-------|
A|-------------------------------------------|
E|-------------------------------------------|

Los temores del ayer
Necesito de tu fe
Para entender
E|-----1-0-------------------------------|
B|-1-3-----3-1-1--1-1-3-1-0--------0-3-3-|
G|--------------------------0-2--0-------|
D|---------------------------------------|
A|---------------------------------------|
E|---------------------------------------|

-CORO-

-INTERMEDIO SALSERO-

Cómo me cambio de piel...el...el...
Y como vuelvo a nacer ...er...er...
E|-1-1-1-1-0---0----------1-1-1-1-0---0-------|
B|-----------3----3--1--1-----------3----3--1-|
G|--------------------------------------------|
D|--------------------------------------------|
A|--------------------------------------------|
E|--------------------------------------------|

No hay peligro al creer, en el amor...uouoor...
E|-3-3-3-3-1-0-1----0-0---------------------|
B|---------------------3----s-1-s-3-s-5---1-|
G|----------------0-------------------------|
D|------------------------------------------|
A|------------------------------------------|
E|------------------------------------------|
Suggest correction
Give kudos to tab author, rate the tab!
1 2 3 4 5
comments
print report bad tab
guest
You may want to rate the tab now too:
select rating
Wanna post a correction for this tab? Suggest correction