Oops, an error
Loading. Please wait.

Hasta Ayer Tab

22 views 3 this week
no commentswrite comment
1 2 3 4 5
3 more votes to show rating
add to favorites
launch autoscroll
font size
0
reset
how to read this tab
guitar tuner
Autoscroll
slow
fast
+/-
esc
set tempo
stop
Help us to improve Ultimate-Guitar.com Take our survey!
×
Author
[Verse]

e|---------------------------------------------------|
B|---------------------------------------------------|
G|-9-9-9--9-9-9-9---10-10-9--9-9-9-----10-10-10-9-7--|
D|----------------7----------------9-9-9-------------|
A|---------------------------------------------------|
E|---------------------------------------------------|

[Verse]
e|-------------------------------------|-----|
B|-------------------------------------|-----|
G|-----------10---10-------------------|-----|
D|-9-9-9-9-7----9----9-9-9-9--9-8-9----|-9-8-|
A|----------------------------------7--|-----|
E|-------------------------------------|-----|

e|------------------------|---|
B|------------------------|---|
G|------------------------|---|
D|----------9--------9----|-8-|
A|-7-10-8-7---10-8-7---7--|---|
E|------------------------|---|

e|-------------------------|-------------------------|
B|-------------------------|-------------------------|
G|----------------------9--|-------------------------|
D|-9-9--9-9-9-------9-7----|-----------9--------9----|
A|------------7-8-7--------|--7-10-8-7---10-8-7---7--|
E|-------------------------|-------------------------|

[Chorus]

e|-----------------|-----------------------------------------------------------------------|
B|-----------------|-----------------------------------------------------------------------|
G|---10-10--10-9-9-|-----------------------------------------------------------------------|
D|-7---------------|-9-9-9-9-8-9---8---------9----------------9-9---8--8-9---9-9-----------|
A|-----------------|-------------7---7-7-7-7---7-8-8--8-8-7-7-----7--------7---------------|
E|-----------------|-----------------------------------------------------------------------|

e|-----------------------------------------------------------------------------|
B|-----------------------------------------------------------------------------|
G|-9---------------------------------------------------------------------------|
D|---9------------------------9---------------9------------9-------------------|
A|-----7-8-10--------------10---7-8---10---10---7-8---10-8---7-8---10-8-10-8-7-|
E|------------7--7-7-8-7-7----------7----7----------7------------7-------------|


[Solo]

e|----------------------------------------------|
B|----------------------------------------------|
G|---------------------------10-9---------------|
D|-----9-8----------9-9--9-7---------------9-9--|
A|-8-7-------7-10-------------------7-10--------|
E|---------7------7---------------7------7------|

e|-----------|---------------------|
B|-----------|------9--------------|
G|-----------|---------------------|
D|-9---9-----|-----------------9-9-|
A|---7---7-8-|-10-7-----7-10-------|
E|-----------|--------7------7-----|
Suggest correction
Give kudos to tab author, rate the tab!
1 2 3 4 5
comments
print report bad tab
guest
You may want to rate the tab now too:
select rating
Wanna post a correction for this tab? Suggest correction