Oops, an error
Loading. Please wait.

No Me Conoces Tab

275 views 1 this week
no commentswrite comment
1 2 3 4 5
3 more votes to show rating
add to favorites
×
Save as Personal and add changes to this tab that will be seen only by you. Learn more ›
×
You can save this tab as Personal to edit and correct it or add notes. All changes will be seen only by you. Learn more »
save as personal
new!
launch autoscroll
font size
0
reset
how to read this tab
guitar tuner
Autoscroll
slow
fast
+/-
esc
set tempo
stop
Intro

|--------11-10-13-11h13p11------------------|
|------11-------------------11--------------|
|----11------------------------10h11p10-----|
|--13---------------------------------------|
|-------------------------------------------|
|-------------------------------------------|

|-------------------------------------------|
|-----------------------------12------------|
|-------------10-11-10-11-13----------------|
|---13-12-13--------------------------------|
|-------------------------------------------|
|-------------------------------------------|

            G#m
No me conoces
             A#                              D#m
y hace tres noches que dormiste entre mis brazos.


|--------18-18-16-16-14-14------------------|
|--------------------------18-18------------|
|--15-15-------------------------15-15------|
|-------------------------------------------|
|-------------------------------------------|
|-------------------------------------------|

     G#m
Ya no recuerdas
          A#                        D#m
las tantas cosas que conmigo hiciste tu?

|-----------13-11-10-11-10-11-10---------------------|
|--------11----------------------11--9---------------|
|-----11-------------------------------11-10---------|
|---13----------------------------------------12-13--|
|----------------------------------------------------|
|----------------------------------------------------|

          G#m
Como creerte?
       D#7                       G#m
Si te morías cada vez que me besabas.

|----------------------------------------------|
|-----16-----17--16-17-18-18-16----------------|
|---16--13-16------------------16--15h16p15-13-|
|----------------------------------------------|
|----------------------------------------------|
|----------------------------------------------|


           E#7
Y hasta decías
                                      A#
haber anhelado siempre un hombre como yo.

|--6----8-----10-----------------------------|
|--6-----------------------------------------|
|--7-----------------------------------------|
|--8-----------------------------------------|
|--8-----------------------------------------|
|--------------------------------------------|


         G#m
En ocasiones
        A#                         D#m
tapé tu boca para que no se escucharan

|-----------13-11-10-11-10-11-10---------------------|
|--------11----------------------11--9---------------|
|-----11-------------------------------11-10---------|
|---13----------------------------------------12-13--|
|----------------------------------------------------|
|----------------------------------------------------|


         G#m       A#                           D#m D#7
los fuertes gritos enloquecidos que brotaron de tu ser.

|-11--11--11---------------------------------|
|-11--11--11---------------------------------|
|--------------------------------------------|
|--------------------------------------------|
|--------------------------------------------|
|--------------------------------------------|


         G#m              A#
Ahora te empeñas en ignorarme
                      D#m
cuando te miro a los ojos,
                                 G#m
pones la cara como sientiendo enojos,
                                D#m  D#7
como si yo fuera un extraño en tu vida.


|-12-12-11-11-9-9----------------------------|
|------------------12-11---------------------|
|--------------------------------------------|
|--------------------------------------------|
|--------------------------------------------|
|--------------------------------------------|


               G#m
Si esa es tu forma
         A#                    D#m
lamento mucho haber estado contigo
                                          G#m
y aunque confieso y pongo a Dios como testigo
              A#                       D#m
que estoy muriendo por tenerte una vez más.

|--------18-18-16-16-14-14------------------|
|--------------------------18-18------------|
|--15-15-------------------------15-15------|
|-------------------------------------------|
|-------------------------------------------|
|-------------------------------------------|

SOLO TROMPETA

   G#m    A#
|--------------t11-t12-t13------------------|
|-------------------------------------------|
|-------------------------------------------|
|-------------------------------------------|
|-------------------------------------------|
|-------------------------------------------|

           G#m
No me conoces,
             A#                       D#m
y hasta una foto me pediste aquella tarde

|--------18-18-16-16-14-14------------------|
|--------------------------18-18------------|
|--15-15-------------------------15-15------|
|-------------------------------------------|
|-------------------------------------------|
|-------------------------------------------|

         G#m            A#                     D#m
para besarla y acariciarla cuando te acuerdes de mi.


Ahora te empeñas en ignorarme...

Si esa es tu forma...
Suggest correction
Give kudos to tab author, rate the tab!
1 2 3 4 5
comments
print report bad tab
guest
Wanna post a correction for this tab? Suggest correction