Oops, an error
Loading. Please wait.

Que Precio Tiene El Cielo Tab

259 views 3 this week
no commentswrite comment
1 2 3 4 5
3 more votes to show rating
add to favorites
launch autoscroll
font size
0
reset
how to read this tab
guitar tuner
×
Best way to learn
"Que Precio Tiene El Cielo"
Autoscroll
slow
fast
+/-
esc
set tempo
stop
[Intro]
e|-2-------2---2-------2---2-2-0-3-2---5-3-2-0-3-2---5-3-|
B|--3-----3-3-3-3-----3-3-3-----------5-3-----------5-3--|
G|---2-0-2---2---2-0-2---2----------3-------------3------|
D|------4-----------4------------------------------------|
A|-------------------------------------------------------|
E|-------------------------------------------------------|

[Verse 1]
                    RE                  LA
Como es que te amo así con todo el pensamiento
                SIm                SOL                LA
Como lograste entrar así sin preguntar robándote el momento
                    RE
Como es que te amo así
                LA
Sin tanto sufrimiento
                   SIm              SOL                     LA
Como es que es natural que cada amanecer quiero parar el tiempo
                     RE                 LA
Y es que te he dado todo y nada es suficiente
                 SIm               SOL                LA
No porque me lo pidas sino porque faltan frenos al quererte  hoo

[Chorus]
                     RE                       SOL
Que precio tiene el cielo, que alguien me lo diga
                   SIm               SOL                   RE  LA
Que más que darte amor yo quiero regalarte el azul de los días
                      RE                      SOL
Que precio tiene el cielo, que alguien me lo diga
                   SIm                 SOL                   RE LA
Si yo con esta historia siento que la gloria ah llegado a mi vida
                      RE                      FA#m
Que precio tiene el cielo, que alguien me lo diga
                MIm              SOL   LA
Yo pago con mi alma sin temor a nada
             RE
Yo te doy mi vida.

[Verse 2]
            RE - LA - SIm - SOL
Esta noche te doy de todo cuanto tengo
y no me doy a basto como imaginar
que mundo yo te invento
Y desde aqui se ven las nubes y los vientos
por eso aqui te traje porque por lo pronto es todo lo que tengo
Y es que te he dado todo y nada es suficiente
no por que me lo pides sino porque faltan frenos al quererte.

[Chorus]
            RE - LA - SIm - SOL - MIm - FA#m
Que precio tiene el cielo que alguien me lo diga
Que mas que darte amor yo quiero regalarte el azul de los dias
Que precio tiene el cielo que alguien me lo diga
Si yo con esta historia siento que la gloria a llegado a mi vida
Que precio tiene el cielo que alguien me lo diga
               MIm               LA
Yo pago con mi alma sin temor a nada
            FA#m
Yo te doy mi vida
  MIm     LA           FA#m      MIm         SOL      LA
Eternamente yo te inventaría como esta tantas otras melodías
    SIm            SOL            LA
Para no  faltarte si te falto un día.

[Instrumental]
e|-7-7-7-7-8-5-7-7---7-7-7-7-10-7-8-8---8-8-8-8-7-8---8-8-8-8-7-8|
B|---------------------------------------------------------------|
G|---------------------------------------------------------------|
D|---------------------------------------------------------------|
A|---------------------------------------------------------------|
E|---------------------------------------------------------------|

e|-8-8-8-10-8-8-7-5-5---7-5-3-5--------------11-9-14------------|
B|-----------------7-----------4-3---11-12-14-------------------|
G|--------------------------------------------------------------|
D|--------------------------------------------------------------|
A|--------------------------------------------------------------|
E|--------------------------------------------------------------|

[Chorus 2]
             FA# - SIm
Que precio tiene, dime que precio tiene, tiene....
Quiero regalarte el azul de los días la luna los mares mi vida
Que precio tiene, dime que precio tiene, tiene
Y es que te he dado de todo y nada es suficiente
Que precio tiene, dime que precio tiene, tiene
Oye mama te lo voy a dar con mi alma lo voy a pagar
Que me lo diga, que me lo diga, alguien que me lo diga, que me lo diga
Que me lo diga, que me lo diga, alguien que me lo diga, que me lo diga
que me lo diga, que me lo diga, alguien que me lo diga, que me lo diga
Suggest correction
Give kudos to tab author, rate the tab!
1 2 3 4 5
comments
print report bad tab
guest
You may want to rate the tab now too:
select rating
Wanna post a correction for this tab? Suggest correction