Oops, an error
Loading. Please wait.

Aurora En Pekin Tab

283 views 30 this week
no commentswrite comment
1 2 3 4 5
2 more votes to show rating
add to favorites
launch autoscroll
font size
0
reset
how to read this tab
guitar tuner
Autoscroll
slow
fast
+/-
esc
set tempo
stop
Help us to improve Ultimate-Guitar.com Take our survey!
×
Author
Difficulty
Tuning
advanced
D A D G B E
I've been meaning to tab this for a while - this is just an interpretation and how I hear it. 
He seems to play it differently each time I hear it.  Turn up the reverb and tremolo and FEEL it, 
don't play it...started the solo but you'll get the point.  This is just an interpretation, only use for
academic purposes...


[Intro]

e|----------------------------------------------------------------------------------------|
B|---------3-3h5-5/6-6~--------------------------------------3-3h5 5/6-6~-----------------|
G|-------2-------------------------------------------------2------------------------------|
D|-----0---------------5---------3-5-5/7-7-7~--3-2-------0---------------5------3-5-3-2~--|
A|---0-------------------------0-----------------------0----------------------5---------3-|
D|-0 (let ring)--------------0(ring)--------(0)------0 (ring)---------------0-------------|

e|-----------------3-3-3-1-------------------0--------------------------------------------|
B|---------3-3h5-5---------3-1-------------3---3-------2~---------------------------------|
G|-------2---------------------2-2h3~3-3-1-------1----2~----------------------------------|
D|-----0---------------------------------------------2~-----------------------------------|
A|---0---------------------------------------------0 (ring)-------------------------------|
D|-0----------------------------------2(ring)---------------------------------------------|


[Body of song, no repeats, bass and drums enter]

e|----------------------------------------------------------------------------------------------|
B|---3-3/5-3-2----(2-3)---------------3-6-5-3/2-------------------------------------------------|
G|-----------------2-3---------------------------------2h3p2-2h3--------------------------------|
D|---3-3/5-3-2---5-----5-5/7-5p3------3-7-5-3/2----2-5-----------3/5-5/3------------------------|
A|-------------0 (let ring)---------------------0-4------------------7/5------------------------|
D|-0(let ring)-------------------/7-0(let ring)--------------------------0----------------------|

e|----------------------------------------------------------------------------------------------|
B|--3-3-3/4-3-------3-4/3-----------3-3-3-3-3-3-3/2---------------------------------------------|
G|--2-2-2/3-2-------2-3/2-2/3~------3-3-3-3-3-3-3/2---------------------------------------------|
D|--4-4-4/5-4-------4-5/4-------2-5------------------2-5-3-5/7-5/3------------------------------|
A|------------/5--------------4---0----------------4---0-------7/5------------------------------|
D|-0(let ring)--/7-0(ring)-----------------------------------------0(ring)----------------------|
                                                                *see note below 
e|-----------------------------------------10-10-12-10-9-----5-6-5-----5------------------------|
B|--------------------------------------------------11-10--8-------5-8---8p6--------------------|
G|------2h3-2-2p1--------2h3---------------10-10-12----------------6-----6h7--------------------|
D|--3-5-------2-2-2----5----3/5-5/3-------------------------------------------------------------|
A|------------2-2--2-0----------7/5-----------------0(ring)------7-------0----------------------|
D|-0(ring)----------2---------------0(ring)-----------------------------------------------------|

e|-10-13-12-10-9----5-6-6-5-5-------------------------------------------------------------------|
B|----------11-10-8------------5-8/6----3-3-3/4-3------4-3-3------------------------------------|
G|-10-14-12----------------------9/7----2-2-2/3-2------3-2-2-2/3--------------------------------|
D|--------------------------------------4-4-4/5-4------5-4-4-------2----------------------------|
A|-----------------------------------0---------------------------4---0--------------------------|
D|-0(ring)-----------------------------0(ring)----/7-0------------------------------------------|


e|-10-10-10-10h12-10/9--9-----5-6-5-----5-------------------------------------------------------|
B|-11-11-11-11----11/10-10--8-------5-8---8p6---------------------------------------------------|
G|----------------------------------6-----6h7-------2-3-2-2p1-------------2-3-2---2-------------|
D|----------------------------------------------3-5----------2--------3-5-------5---5-5/3-------|
A|----------------0-------0-----------------------------------2----0(ring)------------7/5-------|
D|-------------------------------------------0(ring)------------2-------------------------0-----|


e|---6-6-6-6-6-6-6-6-6-3-5-6-5-5-5-----------6-6-6-6-6-6-6-6-6-3-5-6-5-5-5-5-5-5-3-3-3----------|
B|---8-8-8-8-8-8-8-8-8-5-6-8-6-6-6---5-6-5---8-8-8-8-8-8-8-8-8-5-6-8-6-6-6--6-6---5-5-----------|
G|---------------------------------7-------7----------------------------------------------------|
D|----------------------------------------------------------------------------------------------|
A|-0-----------------------------------------0-----------------------------------0--------------|
D|-(ring)--------------------0---------------------------------------------0--------------------|


[Solo] 

(3:03)
e|-5-----5--------------------9-10-12-10-9---9-------------5-5-----6p5---6p5---6p5-6p5-6p5------|
B|-6-6-8-6-8-6-5-5-6-8-6-5-3---------------11--11-8-11-8-8--6-6-------8p5---8p5-----------------|
G|---7-9---9-7-6-6-7-9-7-6-2----------------------------9-9-----7-------------------------------|
D|-------------------------0-------------------------------------7------------------------------|
A|-0-----5-----0-----------0-------------0------------------------------------------------------|
D|-----------------------5-0--0-----------------------------------------------------------------|

e|-4-3-1-0-1-1-1--------------------------------------------------10-10-10-10-10-10-10-10-10-10-|
B|----------3-2-1--------3-5-7-8-9-9/10-10-10-13-13-10/11-11-11---11-11-11-11-11-11-11-11-11-11-|
G|---------------2------2---------10/11-11-11-14-14------------12-------------------------------|
D|-----------------2-3-4------------------------------------------------------------------------|
A|---------------------0------------------------------------------------------------------------|
D|----------------------------------------------------------------------------------------------|

                                                                      (tremolo picking)
e|12-10-5-6-5-5----------------------------------------------------10-10-10-10-10-10-10-10-10-10|
B|11-11------8-8-6-5---------------------------------------5-6-5---11-11-11-11-11-11-11-11-11-11|
G|----------------7---------2h3-2-2p1--------2h3----------7------7------------------------------|
D|----------------------3-5-------2-2-2----5----3/5-5/3-----------------------------------------|
A|--------------------------------2-2--2-0----------7/5-----------------------------------------|
D|--------------------0(ring)----------2----------------0(ring)---------------------------------|

e|9--10-12-10-9---------------------------------10-10-10-10-10-10-10-10-10-10-12-13-10-9--------|
B|10-11-11-11-10-----------------------5-6-5----11-11-11-11-11-11-11-11-11-11-11-10-11-10-------|
G|--------------------3-2-0---------2-7-----7-5-12-12-12-12-12-12-12-12-12-12-------------------|
D|------------------5-------3-2-0--0------------------------------------------------------------|
A|--------------4-7---------------0-------------------------------------------------------------|
D|-------------------------------0--------------------------------------------------------------|

                                     (triplets)
e|-------------------------------10-12-13-12-13-15-13-12-13-12-10-12-8--------------------------|
B|----------------5-6-5------8-11--------------------------------------11-11-10--8-8-6-5--------|
G|---------------7-----7-5--7---------------------------------------------------6--------7------|
D|-----5-3-2-3-------------8--------------------------------------------------------------------|
A|-4-7------------------------------------------------------------------------------------------|
D|------------0---------------------------------------------------------------------------0-----|

                                                                                 (tremolo picking)
e|--------------6h10--6-10--6-10--6-10--6-10------12-------12-13-12-10-----------10...----------|
B|--5-6-5------8-----8-----8-----8-----8--------11-------11--------------5-6-5---11...----------|
G|-7-----7-5--7-----7-----7-----7-----7-------12-------12--------------7-------7----------------|
D|-----------8------------------------------14-------14-----------------------------------------|
A|----------------------------------------------------------------------------------------------|
D|--------------------------------------------------------------------0-------------------------|


[4:52]

                     3x - third time through slows down 
e|9-10-12-10-9------|------9--10-9-------------10-9--10-12-9--------------------|
B|------------10/6--|---12-10-11-10-11-10-9-10-11-10-11-11-10-10-11-10-8-6-5-3--|
G|------------------|.--12----------12-10-9-10----------------10-12-10-9-7-6-2-.|then...
D|-----------------7|.-------------------------------------------------------0-.|
A|------------------|-----------------------------------------------------------|
D|------------------|-0---------------------------------------------------------|


e|------0-----------10-----|
B|-----3---------10--------|
G|----2---4-sl-7-----------|
D|---0---------------------|
A|--0----------------------|
D|-0 (let ring)------------|

* This part is tough but work to switch positions from 7th to 5th as you finish the double stops at the 
10th and 9th fret.  Place your hand in this chord position x7x655 (A/E).  




************************************

| h    Hammer-on
| /    Slide up
| ~    Vibrato
| (n)  Ghost note
| p    Pull-off   
| sl   slide

************************************
Suggest correction
Give kudos to tab author, rate the tab!
1 2 3 4 5
comments
print report bad tab
guest
You may want to rate the tab now too:
select rating
Wanna post a correction for this tab? Suggest correction