Oops, an error
Loading. Please wait.

Ordinary Song Tab

version 1
version 1

Whole song

71,399 views 174 this week
no commentswrite comment
1 2 3 4 5
please rate
add to favorites
launch autoscroll
font size
0
reset
how to read this tab
guitar tuner
Autoscroll
slow
fast
+/-
esc
set tempo
stop
Help us to improve Ultimate-Guitar.com Take our survey!
×
[Intro]

       e|------0---0--3\8----3-0---|--------0------------------------------|
       B|--1--1------------0-0-----|--1--1--1-----1-1----------------------|
       G|----0------------0--0-----|----0---0------0-----------------------|
       D|--------------------------|---------------------------------------|
       A|--3-------3--3-0----------|--3---------3--------------------------|
       E|--------------------------|---------------------------------------|

       e|--------------------------|
       B|---0--0--1\3--------------|
       G|-----0---2\4--------------|
       D|--------------------------|
       A|--------------------------|
       E|---3----------------------|

       e|--------0---0--3\8-----3-0---|--------0----------------------------|
       B|--1---1--------------0-0-----|---1--1-1---1-1----------------------|
       G|----0--------------0---0-----|-----0--0----0-----------------------|
       D|-----------------------------|-------------------------------------|
       A|--3---------3--3-0-----------|---3------3--------------------------|
       E|-----------------------------|-------------------------------------|

       e|---------------|----------------|
       B|--0---0-1\3----|--0---0-1\3-----|
       G|----0---2\4----|----0---2\4-----|
       D|---------------|----------------|
       A|---------------|----------------|
       E|--3------------|--3-------------|


[Verse]

                                                       2X
                         (C)                          (Dm)
             e|-------0-0---3\8-------3-0--|---------3--1-------------------|
             B|--1--1--------------0--0----|------3--3----3-----------------|
             G|----0--------------0---0----|----2----2----------------------|
             D|----------------------------|--0-----------------------------|
             A|--3------3---3-0------------|--------------------------------|
             E|----------------------------|--------------------------------|
        just an ordinary song           to a special girl
                     2X
                     (G)             (C)                   (G)
             e|-----------3-0----|-------0--------|--------------------------|
             B|---0----0--0--0---|-1---1-1---1-1--|-----0--0----1\3----------|
             G|------0----0------|---0---0----0---|-------0------------------|
             D|------------------|----------------|-------------2\4----------|
             A|------------------|-3--------3-----|--------------------------|
             E|---3--------------|----------------|-----3--------------------|
          from a simple guy      so in love   with you
                                                         2X
                     (C)              (Am)               (Dm)
             e|--------0--3-----|------0--------|-------3--1-----------------|
             B|-1---1-----------|-1-1--1--1-----|----3--3----3---------------|
             G|---0-------------|--2---2--------|---2---3--------------------|
             D|-----------------|---------------|--0-------------------------|
             A|-3------3--3-----|-0------0------|----------------------------|
             E|-----------------|---------------|----------------------------|

         i may not            to show          to make you glance
                   2X
                   (G)              (C)                  (C7)

             e|-----------1-----|-------0--------|--------0---------------------|
             B|0---0---0--0---0-|--1--1-1---1----|--1----1---1------------------|
             G|------0----0-----|----0--0------0-|------3-----3-----------------|
             D|-----------------|----------------|----2--------2----------------|
             A|-----------------|--3------3------|--3---------------------------|
             E|3----------------|----------------|------------------------------|



************************************

| \  Slide down

************************************
Suggest correction
Give kudos to tab author, rate the tab!
1 2 3 4 5
comments
print report bad tab
guest
You may want to rate the tab now too:
select rating
Please do not post tabs as comments. Select "correction" instead!