Oops, an error
Loading. Please wait.

Ordinary Song chords

version 2
version 2

Whole song

  • INTRO and OUTRO riffs included with a link provide... Show more
214 views 45 this week
no commentswrite comment
1 2 3 4 5
3 more votes to show rating
add to favorites
×
Save as Personal and add changes to this tab that will be seen only by you. Learn more ›
×
You can save this tab as Personal to edit and correct it or add notes. All changes will be seen only by you. Learn more »
launch autoscroll
font size
0
reset
transpose
0
reset
simplify chords
display chords
guitar tuner
edit
Autoscroll
slow
fast
+/-
esc
set tempo
stop
About this tab version
INTRO and OUTRO riffs included with a link provided for the complete TAB of the whole song. Was this info helpful? Yes No
Strumming
There is no strumming pattern for this song yet. and get +5 IQ
Transcribed and Tabbed: Buenofine Calse
                        buenofinecalse@rocketmail.com
                        Baguio City
Credits: David DiMuzio
         https://www.youtube.com/watch?v=60UXQOxERgc
         https://www.youtube.com/watch?v=ivV78NBgfBQ
         https://www.youtube.com/watch?v=oR7ojDJwE0U

ORDINARY SONG by Mard Velasco
**************************************************************************
Visit the link below for the complete TAB:

https://tabs.ultimate-guitar.com/m/marc_velasco/ordinary_song_ver4_tab.htm
**************************************************************************
Note: You may opt to play with a CAPO on the 5th fret.

[Intro: CHORDS]

C  G/B  Am  Dm7  G Gsus G
C  G/B  Am  Dm7  G Gsus G  G Gsus G

[Intro: TAB]
    C        s G/B s Am         Dm7           G  Gsus G
e|---------0----------------3-0-------1-----------------------------|
B|--------------3----1--------------1---(1)---0-----1-3-------------|
G|------0-------0----2----2-------2-------(2)---0---0-0-------------|
D|----2---------0----2--2-------0-----------------0-----------------|
A|--3-----------2----0----------------------------------------------|
E|--------------------------------------------3-----3-3-------------|

    C        s G/B s Am         Dm7           G  Gsus G  G  Gsus G
e|---------0----------------3-0-------1-----------------------------|
B|--------------3----1--------------1---(1)---0-----1-3--0-----1-3--|
G|------0-------0----2----2-------2-------(2)---0---0-0----0---0-0--|
D|----2---------0----2--2-------0-----------------0----------0------|
A|--3-----------2----0----------------------------------------------|
E|--------------------------------------------3-----3-3--3-----3-3--|


[Verse 1]

        C     G/B Am
Just an ordinary song
     Dm7                G Gsus G
To a special girl like you
       Dm7
From a simple guy
      G                C G Gsus G
Who's so in love with you


[Verse 2]

      C         G/B     Am
I may not have much to show
   Dm7            G  G Gsus G
No diamonds that glow
    Dm7
No limousines
   G                  C   C7
To take you where you go.


[CHORUS 1]

           F               G
But if you ever find yourself
         E7                Am  Am/G
Tired of all the games you play
        F                G
When the world seems so unfair
        E7              Am
You can count on me to stay
     Am/G        F
Just take sometime
     G
And lend an ear
        Dm7  G    C   G  Gsus G
To this ordinary song


[Verse 3]

        C     G/B Am
Just an ordinary song
     Dm7                G Gsus G
To a special girl like you
       Dm7
From a simple guy
      G                C G Gsus G
Who's so in love with you


[Verse 3]

        C     G/B     Am
I don't even have the looks
   Dm7                G Gsus G
To make you glance my way
     Dm7
The clothes I wear
    G                C   C7
May just seem so absurd


[CHORUS 2]

             F            G
But deep inside of me is you
          E7            Am Am/G
You give life to what I do
           F                 G
All those years may see you through
               E7              Am
Still I'll be waiting here for you
    Am/G       F
If you have time
        G
Please lend an ear
        Dm7  G    C   G  Gsus G  G  Gsus G
To this ordinary song


[Verse 5]

        C     G/B Am
Just an ordinary song
     Dm7                G Gsus G
To a special girl like you
       Dm7
From a simple guy
      G                 C  pause
Who's so in love with you


[Outro: CHORDS]

C  G/B  Am  Dm7  G Gsus G  G Gsus G  C

[Outro: TAB]

    C        s G/B s Am         Dm7           G  Gsus G  G  Gsus G  C
e|---------0----------------3-0-------1---------------------------------0--|
B|--------------3----1--------------1---(1)---0-----1-3--0-----1-3-----1---|
G|------0-------0----2----2-------2-------(2)---0---0-0----0---0-0----0----|
D|----2---------0----2--2-------0-----------------0----------0-------2-----|
A|--3-----------2----0----------------------------------------------3------|
E|--------------------------------------------3-----3-3--3-----3-3---------|


****************************************************************************

| (n) Ghost note
| h   Hammer-on
| p   Pull-off
| b   Bend
| r   Release
| /   Slide up
| \   Slide down
| ~   Vibrato
| s   Slap

****************************************************************************
Suggest correction
Creating personal tab
Creating personal tab
You can edit any tab online and save it as your Personal.

You can edit, replace or remove any tab part or add personal notes – all changes will be seen only by you.

Personal tabs can be accessed anytime from any device, even offline.
Learn more »
Give kudos to tab author, rate the tab!
1 2 3 4 5
comments
print report bad tab
guest
You may want to rate the tab now too:
select rating
Wanna post a correction for this tab? Suggest correction