Oops, an error
Loading. Please wait.

Ordinary Song tab

version 4
version 4

Whole song

106 views 9 this week
no commentswrite comment
1 2 3 4 5
3 more votes to show rating
add to favorites
×
Save as Personal and add changes to this tab that will be seen only by you. Learn more ›
×
You can save this tab as Personal to edit and correct it or add notes. All changes will be seen only by you. Learn more »
launch autoscroll
font size
0
reset
how to read this tab
guitar tuner
edit
Autoscroll
slow
fast
+/-
esc
set tempo
stop
About this tab version
Intro, Verses, Choruses , and Outro Tabs with the corresponding Lyrics and Chords. Was this info helpful? Yes No
Transcribed and Tabbed: Buenofine Calse
                        buenofinecalse@rocketmail.com
                        Baguio City
Credits: David DiMuzio
         https://www.youtube.com/watch?v=60UXQOxERgc
         https://www.youtube.com/watch?v=ivV78NBgfBQ
         https://www.youtube.com/watch?v=oR7ojDJwE0U

ORDINARY SONG by Marc Velasco
*****************************************************

Note: You may opt to play with a CAPO on the 5th fret.

      I also made a 'ÇHORD' sheet if you wish to play just with chords.
      INTRO and OUTRO tabs included; Pls. check the link below:
      
      https://tabs.ultimate-guitar.com/m/marc_velasco/ordinary_song_ver2_crd.htm


[Intro]

    C        s G/B s Am         Dm7           G  Gsus G
e|---------0----------------3-0-------1-----------------------------|
B|--------------3----1--------------1---(1)---0-----1-3-------------|
G|------0-------0----2----2-------2-------(2)---0---0-0-------------|
D|----2---------0----2--2-------0-----------------0-----------------|
A|--3-----------2----0----------------------------------------------|
E|--------------------------------------------3-----3-3-------------|

    C        s G/B s Am         Dm7           G  Gsus G  G  Gsus G
e|---------0----------------3-0-------1-----------------------------|
B|--------------3----1--------------1---(1)---0-----1-3--0-----1-3--|
G|------0-------0----2----2-------2-------(2)---0---0-0----0---0-0--|
D|----2---------0----2--2-------0-----------------0----------0------|
A|--3-----------2----0----------------------------------------------|
E|--------------------------------------------3-----3-3--3-----3-3--|



[Verse 1]

        C        s G/B s Am             Dm7                G  Gsus G    
e|-------------0----------------3-0-----------1-----------------------|
B|------------------3----1------------------1---(1)--------0-----1-3--|
G|----------0-------0----2----2-----------2-------(2)--------0---0-0--|
D|--------2---------0----2--2-----------0----------------------0------|
A|------3-----------2----0--------------------------------------------|
E|---------------------------------------------------------3-----3-3--|

Just an o r d i n a r y song       to a special girl like you        

       Dm7              G                C           G  Gsus G  
e|------------1---------------------------------1-0-------------|
B|----------1---(1)-------------0---------------3-1--0-----1-3--|
G|--------2-------------------0----0---------0---------0---0-0--|
D|-----0-------------------0---------------2-------------0------|
A|---------------------------------------3------3-3-------------|
E|----------------------3----------------------------3-----3-3--|

From a simple guy who's so in love with you



[Verse 2]


      C        s G/B s Am               Dm7            G  Gsus G    
e|-----------0-------------------3-0----------1-------------------|
B|----------------3-------1-----------------1---(1)----0-----1-3--|
G|--------0-------0-------2----2----------2-------(2)----0---0-0--|
D|------2---------0-------2--2----------0------------------0------|
A|----3-----------2-------0---------------------------------------|
E|-----------------------------------------------------3-----3-3--|

I may not  have  much to show,       no diamonds that glow

 Dm7             G                  C           C7  
e|---------1-------------------------------1-0-------------|
B|-------1---(1)-----------0---------------3-1--------0----|
G|-----2----------------0-----0---------0-----------3------|
D|--0----------------0----------------2-----------0--------|
A|----------------------------------3------3-3--3----------|
E|---------------3-----------------------------------------|

No limousines to take you where you go ...



[Chorus 1]

           F               G                 E7                Am      Am/G
e|----------------------------------------------------------------------------|
B|-------------------1-----------0-------------------0-------------1-------1--|
G|----------------2----2-------0---0---------------1----1---------2-------2---|
D|-------------3-------------0-------------------0----------0----2-------2----|
A|-------------------------------------------------------------0--------------|
E|---------1---------------3-----------------0-------------------------3------|

But if you ever find yourself       tired of all the games you play

        F                G               E7                 Am  
e|---------------------------------------------------------------|
B|---------------1-------------0-----------------0------------1--|
G|-------------2----2--------0---0-------------1----1--------2---|
D|-----------3-------------0-----------------0---------0----2----|
A|--------------------------------------------------------0------|
E|------1----------------3----------------0----------------------|

When the world seems so unfair,   you can count on me to stay

     Am/G        F           G                  Dm7        G      C          G  Gsus G
e|----------------------------------------------------1-----------------1-0-------------|
B|-----------1---------1-----------0----------------1-----------0-------3-1--0-----1-3--|
G|---------2---------2---2-------0---0------------2-----------0-------0--------0---0-0--|
D|-------2---------3-----------0----------------0-----------0-------2------------0------|
A|----------------------------------------------------------------3-----3-3-------------|
E|---3-----------1-----------3----------------------------3------------------3-----3-3--|

Just take sometime      and lend an ear to this o r d i n a r y  song.



[Verse 3]


        C        s G/B s Am             Dm7                G  Gsus G    
e|-------------0----------------3-0-----------1-----------------------|
B|------------------3----1------------------1---(1)--------0-----1-3--|
G|----------0-------0----2----2-----------2-------(2)--------0---0-0--|
D|--------2---------0----2--2-----------0----------------------0------|
A|------3-----------2----0--------------------------------------------|
E|---------------------------------------------------------3-----3-3--|

Just an o r d i n a r y song       to a special girl like you        

       Dm7              G                C           G  Gsus G  
e|------------1---------------------------------1-0-------------|
B|----------1---(1)-------------0---------------3-1--0-----1-3--|
G|--------2-------------------0----0---------0---------0---0-0--|
D|-----0-------------------0---------------2-------------0------|
A|---------------------------------------3------3-3-------------|
E|----------------------3----------------------------3-----3-3--|

From a simple guy who's so in love with you 


[Verse 4]

        C        s G/B s Am            Dm7                G  Gsus G    
e|-------------0----------------3-0--------------1-------------------|
B|------------------3----1--------------------1----(1)----0-----1-3--|
G|----------0-------0----2----2------------2---------(2)----0---0-0--|
D|--------2---------0----2--2----------0----------------------0------|
A|------3-----------2----0-------------------------------------------|
E|--------------------------------------------------------3-----3-3--|

I don't even have  the   looks      To make you glance my way

 Dm7             G                  C               C7  
e|-------------1-------------------------------1-0-------------|
B|----------1-----(1)------------0-------------3-1--------0----|
G|-------2--------------------0-----0-------0-----------3------|
D|---0---------------------0--------------2-----------0--------|
A|--------------------------------------3------3-3--3----------|
E|---------------------3---------------------------------------|

The clothes I wear may just seem so absurd...



[Chorus 2]

             F            G                   E7            Am      Am/G
e|-------------------------------------------------------------------------|
B|------------------1-----------0---------------------0---------1-------1--|
G|----------------2---2-------0---0-----------------1---1------2-------2---|
D|--------------3-----------0---------------------0-------0---2-------2----|
A|----------------------------------------------------------0--------------|
E|-----------1------------3-------------------0---------------------3------|

But deep inside of me is you,       You give life to what I do

           F                 G                       E7              Am    
e|-------------------------------------------------------------------------|
B|--------------------1------------0------------------------0------------1-|
G|-----------------2-----2-------0---0--------------------1----1--------2--|
D|--------------3--------------0------------------------0---------0----2---|
A|-------------------------------------------------------------------0-----|
E|---------1-----------------3-----------------------0---------------------|

All those years may see you through,  still I'll be waiting here for you

    Am/G       F           G                  Dm7        G      C          G  Gsus G
e|--------------------------------------------------1-----------------1-0-------------|
B|----------1--------1-----------0----------------1-----------0-------3-1--0-----1-3--|
G|--------2--------2---2-------0---0------------2-----------0-------0--------0---0-0--|
D|------2--------3-----------0----------------0-----------0-------2------------0------|
A|--------------------------------------------------------------3-----3-3-------------|
E|--3----------1-----------3----------------------------3------------------3-----3-3--|

If you have time      and lend an ear to this o r d i n a r y  song.



[Verse 5]

        C        s G/B s Am             Dm7                G  Gsus G    
e|-------------0----------------3-0-----------1-----------------------|
B|------------------3----1------------------1---(1)--------0-----1-3--|
G|----------0-------0----2----2-----------2-------(2)--------0---0-0--|
D|--------2---------0----2--2-----------0----------------------0------|
A|------3-----------2----0--------------------------------------------|
E|---------------------------------------------------------3-----3-3--|

Just an o r d i n a r y song       to a special girl like you        

       Dm7              G                   C           pause  
e|------------1------------------------------------1--0--|
B|----------1---(1)-------------0------------------3--1--|
G|--------2-------------------0----0------------0--------|
D|-----0-------------------0------------------2----------|
A|------------------------------------------3------3--3--|
E|----------------------3--------------------------------|

From a simple guy who's so in love   with you.



[Outro]

    C        s G/B s Am         Dm7           G  Gsus G  G  Gsus G  C
e|---------0----------------3-0-------1---------------------------------0--|
B|--------------3----1--------------1---(1)---0-----1-3--0-----1-3-----1---|
G|------0-------0----2----2-------2-------(2)---0---0-0----0---0-0----0----|
D|----2---------0----2--2-------0-----------------0----------0-------2-----|
A|--3-----------2----0----------------------------------------------3------|
E|--------------------------------------------3-----3-3--3-----3-3---------|


****************************************************************************

| (n) Ghost note
| h   Hammer-on
| p   Pull-off
| b   Bend
| r   Release
| /   Slide up
| \   Slide down
| ~   Vibrato
| s   Slap

****************************************************************************
Suggest correction
Creating personal tab
Creating personal tab
You can edit any tab online and save it as your Personal.

You can edit, replace or remove any tab part or add personal notes – all changes will be seen only by you.

Personal tabs can be accessed anytime from any device, even offline.
Learn more »
Give kudos to tab author, rate the tab!
1 2 3 4 5
comments
print report bad tab
guest
You may want to rate the tab now too:
select rating
Wanna post a correction for this tab? Suggest correction