Oops, an error
Loading. Please wait.

Es Una Aventura Tab

version 1
version 1

Whole song

43 views 1 this week
no commentswrite comment
1 2 3 4 5
3 more votes to show rating
add to favorites
launch autoscroll
font size
0
reset
how to read this tab
guitar tuner
Autoscroll
slow
fast
+/-
esc
set tempo
stop
Help us to improve Ultimate-Guitar.com Take our survey!
×
Esta es el intro para la cancion

(teclado va primero y luego entra la guitarra en 0:15)

e------------------------------------
B-6--4----6--4-----6-4--6-4--8--6s4~~
G------3--------3--------------------
D------------------------------------
A------------------------------------
E------------------------------------


e------------------------------------
B-6--4-----6--4------6--4--8--6------
G------3---------3--------------3--5~
D------------------------------------
A------------------------------------
E------------------------------------


Alguna duda favor de enviarme un mensaje a: ericnikc@
Suggest correction
Give kudos to tab author, rate the tab!
1 2 3 4 5
comments
print report bad tab
guest
You may want to rate the tab now too:
select rating
Wanna post a correction for this tab? Suggest correction