Oops, an error
Loading. Please wait.

Es Una Aventura Tab

version 2
version 2

Whole song

109 views 1 this week
no commentswrite comment
1 2 3 4 5
2 more votes to show rating
add to favorites
×
Save as Personal and add changes to this tab that will be seen only by you. Learn more ›
×
You can save this tab as Personal to edit and correct it or add notes. All changes will be seen only by you. Learn more »
save as personal
new!
launch autoscroll
font size
0
reset
how to read this tab
guitar tuner
Autoscroll
slow
fast
+/-
esc
set tempo
stop
Hola amigos, este es mi primer aporte es el solo de esta hermosa canción
Espero que les sea de bendición a todos, ya que no la habían subido.

Solo:

e--------------------------------------------------------------------
B--------------------------------------------------------------------
G---------------8--10s12--10--8----------10s12--10--10--8--8--8--10--
D--------8--10-------------------10--10------------------------------
A-8--10--------------------------------------------------------------
E--------------------------------------------------------------------

e--------------------------------------------------------------------
B-----------------------------------------------------11-------------
G---------------------8--10s12--10--8----------10s12------10--8--8--8
D-8s10---------8--10-------------------10--10------------------------
A-------8--10--------------------------------------------------------
E--------------------------------------------------------------------

e--------------------------------------------------------------------
B------------13--15--15s16-------------------------------------------
G-10--8~-12-----------------13------10--12--12s13--12--10--8--8--10-
D--------------------------------10----------------------------------
A--------------------------------------------------------------------
E--------------------------------------------------------------------

e-------------------15--13h15------11------11------11------11--13-13~x3
B------------------------------13------13------13-------13-------------
G-10s12--10--8-------------------------------------------------------
D---------------10---------------------------------------------------
A--------------------------------------------------------------------
E--------------------------------------------------------------------

e-11----------------------------
B-----11~x3--9--8---------------
G-------------------------------
D-------------------------------
A-------------------------------
E-------------------------------


Tablatura
e------------------------------primera cuerda
B------------------------------segunda cuerda
G------------------------------tercera cuerda
D------------------------------cuarta cuerda
A------------------------------quinta cuerda
E------------------------------sexta cuerda

~~ = Vibrato
VIBRATO:

Se toca la nota y se hace vibrar con el vibrato o palanca de la guitarra,
o bien haciendo un bend lo más rápido
posible hacia arriba y hacia abajo.

s= Slide
SLIDE:

Se toca la nota primera nota y se corre el dedo hasta un trasto más arriba
o más abajo
segun sea el caso.
La segunda nota no es tocada con la mano que hace el pick.
= es el slide hacia abajo.

h= Hammer on
HAMMER-ON:

Se toca la primera nota y la segunda se hace sonar por medio de un tap
(presionar
el trasto de la
guitarra y lograr un sonido sin necesidad de hacer un punteo) la segunda
nota.

Bien esto es todo, cualquier duda les dejo mi e-mail:
el_jonacast@
Suggest correction
Give kudos to tab author, rate the tab!
1 2 3 4 5
comments
print report bad tab
guest
Wanna post a correction for this tab? Suggest correction