Oops, an error
Loading. Please wait.

Mi Paraiso Tab

112 views 1 this week
no commentswrite comment
1 2 3 4 5
3 more votes to show rating
add to favorites
launch autoscroll
font size
0
reset
how to read this tab
guitar tuner
Autoscroll
slow
fast
+/-
esc
set tempo
stop
Bueno!!!
Aki les dejo este canto de mucha bendicion,
espero les sirva!!


Colocar el capo en el 4to. traste, desde
ahí cuenta la tablatura.

I N T R O:

  G#m9         E11(No.7)  E      B
e-|-2--3--2--0------0--------------------------------------|
B-|-0------------3-----3--1------0--1--1s3--1---0h1p0------|
G-|-0--4--2--0------0------------0--------------------0----|
D-|-2------------4-----4--2------0--2--2s4--2---0h2p0---0--|
A-|-2------------3----------3------------------------------|
E-|-0----------------------------3------------3------------|


  F#6/A#     F#add4/A#
e-|-----------------|
B-|---0-------------|
G-|-2---2--0--------|
D-|------------4----|
A-|--------------5--|
E-|-2--------2------|


  G#m9         E11(No.7)  E          B
e-|-2--3--2--0------0------------------------------------------|
B-|-0------------3-----3--1-----1----0--1--1s3--1---0h1p0------|
G-|-0--4--2--0------0-----------0----0--------------------0----|
D-|-2------------4-----4--2---2---2--0--2--2s4--2---0h2p0---0--|
A-|-2------------3----------3----------------------------------|
E-|-0--------------------------------3------------3------------|

   F#add4   F#
e-|----------------|
B-|-------3--------|
G-|---0-------2----|
D-|-4---4---4------|
A-|-------------5--|
E-|----------------|


ESTROFA I:

    B                    Amaj7
  Vagaba en el desierto y tu
e-|--------------------------------------|
B-|-0-----0-----0---------1-----1-----1--|
G-|-0-----0-----0---------2-----2-----2--|
D-|----0-----0---------------3-----3-----|
A-|--------------------------------------|
E-|-3---------------------1--------------|

    G#m
Muy distante parecias estar
  e-|--------------------------------|
  B-|-0-----0-----0------0-----------|
  G-|-0-----0-----0------0-----2--0--|
  D-|----2-----2------------2--4--2--|
  A-|--------------------------------|
  E-|-0------------------0-----------|

     C#m7          B/D#     Eadd2  E
La soledad me ahogaba     y mi alma tu presencia
e-|--------------------------0-------------|
B-|-1-----1-----1----3-------3--3--1-------|
G-|-0-----0-----0----0----------0----0-----|
D-|-2--2-----2-----2---0---------------2---|
A-|-0----------------2-------3-------------|
E-|----------------------------------------|

    B                    AMaj7/C#
 añoraba                uhh  uhh
e-|------------------------------0-----|
B-|-0-----0-----0-----0-----1----1--1--|
G-|-0-----0-----0-----0-----2-------2--|
D-|----0-----0-----0-----0----3--------|
A-|-------------------------0----------|
E-|-3----------------------------------|

    B                      Amaj7
El sol  dejó  de  dar  su  luz
e-|----------------------------------0----|
B-|-0-----0-----0-----0-----1-----1--1----|
G-|-0-----0-----0-----0-----2-----2-------|
D-|----0-----0-----0-----0-----3----------|
A-|---------------------------------------|
E-|-3-----------------------1-------------|

     G#m
Y la luna  no  brillaba  más
  e-|-----------------------------------|
  B-|-0-----0-----0-----0----0----------|
  G-|-0-----0-----0-----0----0----2--0--|
  D-|----2-----2-----2----2----2--4--2--|
  A-|-----------------------------------|
  E-|-0----------------------0----------|

     C#m7           B/D#     Eadd2   E   C#/F
Y aunque te imaginaba    tú eres más   de lo que
 e-|--------------------------0------------0-|
 B-|-1-----1-----1----3-------3--3--1------2-|
 G-|-0-----0-----0----0----------0----0----2-|
 D-|-2--2-----2-----2---0---------------2----|
 A-|-0----------------2-------3------------4-|
 E-|-----------------------------------------|

    F#sus                        Gdim
esperaba
e-|--3-----3-----3-----0h2p0------2-----2-----2-----|
B-|--3-----3-----3-----------3----1-----1-----1-----|
G-|-----2-----2-----2----------2--2--2-----2-----2--|
D-|--0----------------------------1-----------------|
A-|-------------------------------------------------|
E-|-------------------------------------------------|


C O R O:

   G#m9       E11(No.7)
Más Hoy    he llegado al paraiso oh
e-|-2--3--2--0------0----------------|
B-|-0------------3-----3------1--0---|
G-|-0--4--2--0---0--------0----------|
D-|-2------------4------4-----2--0---|
A-|-2------------3-------------------|
E-|-0--------------------------------|

    B                      F#add4    Gdim
                  Donde [ch]E corazón A[/ch]  vuelto a
e-|-----------------------------------2---2---|
B-|-------0-----0-----0----3-----3----1---1---|
G-|-------0-----0-----0----0-----0------2---2-|
D-|----0-----0-----0-----0----4-----4-1-------|
A-|------------------------5------------------|
E-|-3-----------------------------------------|

   G#m9        E11(No.7)
 latir     eres aire que me revivió
e-|-2--3--2--0------0----------------|
B-|-0------------3-----3------0--1---|
G-|-0--4--2--0---0--------0----------|
D-|-2------------4------4-----0--2---|
A-|-2------------3-------------------|
E-|-0--------------------------------|


   C#m7             B/D#   Eadd2  E
                Y sustentó
e-|-------------------------0-------------|
B-|-------1-----1-----3-----3--3--1-------|
G-|-------0-----0-----0--------0----0-----|
D-|----2-----2-----2-----0------------2---|
A-|-0-----------------2-----3-------------|
E-|---------------------------------------|

         F#
Pues tu eres mi paraiso
e-|---------|
B-|------3--|
G-|------2--|
D-|------4--|
A-|------5--|
E-|---------|

   G#m9        E11(No.7)
e-|-2--3--2--0------0-----------|
B-|-0------------3-----3--1-----|
G-|-0--4--2--0------0-----------|
D-|-2------------4-----4--2-----|
A-|-2------------3----------3---|
E-|-0---------------------------|


ESTROFA II:


    B                      Amaj7
En medio   de   la   obscuridad
e-|----------------------------------0----|
B-|-0-----0-----0-----0-----1-----1--1----|
G-|-0-----0-----0-----0-----2-----2-------|
D-|----0-----0-----0-----0-----3----------|
A-|---------------------------------------|
E-|-3-----------------------1-------------|

     G#m
Tu verdad me ha dado claridad
  e-|-----------------------------------|
  B-|-0-----0-----0-----0----0----------|
  G-|-0-----0-----0-----0----0----2--0--|
  D-|----2-----2-----2----2----2--4--2--|
  A-|-----------------------------------|
  E-|-0----------------------0----------|

     C#m7           B/D#     Eadd2   E   C#/F
Tu amor es esa lluvia  que ha hecho florecer la
 e-|--------------------------0------------0-|
 B-|-1-----1-----1----3-------3--3--1------2-|
 G-|-0-----0-----0----0----------0----0----2-|
 D-|-2--2-----2-----2---0---------------2----|
 A-|-0----------------2-------3------------4-|
 E-|-----------------------------------------|

    F#sus                        Gdim
esperanza
e-|--3-----3-----3-----0h2p0------2-----2-----2-----|
B-|--3-----3-----3-----------3----1-----1-----1-----|
G-|-----2-----2-----2----------2--2--2-----2-----2--|
D-|--0----------------------------1-----------------|
A-|-------------------------------------------------|
E-|-------------------------------------------------|

C O R O:

   G#m9       E11(No.7)
Más Hoy    he llegado al paraiso oh
e-|-2--3--2--0------0----------------|
B-|-0------------3-----3------1--0---|
G-|-0--4--2--0---0--------0----------|
D-|-2------------4------4-----2--0---|
A-|-2------------3-------------------|
E-|-0--------------------------------|

    B                      F#add4    Gdim
                  Donde [ch]E corazón A[/ch]  vuelto a
e-|-----------------------------------2---2---|
B-|-------0-----0-----0----3-----3----1---1---|
G-|-------0-----0-----0----0-----0------2---2-|
D-|----0-----0-----0-----0----4-----4-1-------|
A-|------------------------5------------------|
E-|-3-----------------------------------------|

   G#m9        E11(No.7)
 latir     eres aire que me revivió
e-|-2--3--2--0------0----------------|
B-|-0------------3-----3------1--0---|
G-|-0--4--2--0---0--------0----------|
D-|-2------------4------4-----2--0---|
A-|-2------------3-------------------|
E-|-0--------------------------------|

    B                      F#add4    Gdim
                  Y me ha llenado de vida
e-|-----------------------------------2---2---|
B-|-------0-----0-----0----3-----3----1---1---|
G-|-------0-----0-----0----0-----0------2---2-|
D-|----0-----0-----0-----0----4-----4-1-------|
A-|------------------------5------------------|
E-|-3-----------------------------------------|

   G#m9       E11(No.7)
Pues Hoy    he llegado al paraiso oh
e-|-2--3--2--0------0----------------|
B-|-0------------3-----3------1--0---|
G-|-0--4--2--0---0--------0----------|
D-|-2------------4------4-----2--0---|
A-|-2------------3-------------------|
E-|-0--------------------------------|

    B                      F#add4    Gdim
                  Donde [ch]E corazón A[/ch]  vuelto a
e-|-----------------------------------2---2---|
B-|-------0-----0-----0----3-----3----1---1---|
G-|-------0-----0-----0----0-----0------2---2-|
D-|----0-----0-----0-----0----4-----4-1-------|
A-|------------------------5------------------|
E-|-3-----------------------------------------|

   G#m9        E11(No.7)
 latir     eres aire que me revivió
e-|-2--3--2--0------0----------------|
B-|-0------------3-----3------0--1---|
G-|-0--4--2--0---0--------0----------|
D-|-2------------4------4-----0--2---|
A-|-2------------3-------------------|
E-|-0--------------------------------|


   C#m7             B/D#   Eadd2  E
                Y sustentó
e-|-------------------------0-------------|
B-|-------1-----1-----3-----3--3--1-------|
G-|-------0-----0-----0--------0----0-----|
D-|----2-----2-----2-----0------------2---|
A-|-0-----------------2-----3-------------|
E-|---------------------------------------|


         F#
Pues tu eres mi paraiso
e-|---------|
B-|------3--|
G-|------2--|
D-|------4--|
A-|------5--|
E-|---------|

   G#m9        E11(No.7)
e-|-2--3--2--0------0-----------|
B-|-0------------3-----3--1-----|
G-|-0--4--2--0------0-----------|
D-|-2------------4-----4--2-----|
A-|-2------------3----------3---|
E-|-0---------------------------|

    B/F#  C#m7      F#
Pues tu  eres mi paraiso uoh
e-|-------------------------|
B-|----3---1--------3----0--|
G-|----0---0--------2----0--|
D-|----0---2--------4----0--|
A-|----2---0--------5----2--|
E-|----------------------3--|


Acordes Usados:


             G#m9

      4    5   6   7   8
e-| |-||-|---|-
Suggest correction
Give kudos to tab author, rate the tab!
1 2 3 4 5
comments
print report bad tab
guest
Wanna post a correction for this tab? Suggest correction