Oops, an error
Loading. Please wait.

No Me Lo Perdono Tab

15 views 1 this week
no commentswrite comment
1 2 3 4 5
3 more votes to show rating
add to favorites
launch autoscroll
font size
0
reset
how to read this tab
guitar tuner
Autoscroll
slow
fast
+/-
esc
set tempo
stop
Help us to improve Ultimate-Guitar.com Take our survey!
×
INTRO:C#m,A5,E,B5

SOBRE LOS ACORDES SE TOCA ESTO:

----------|---------------|--------------|-----------------|-------|
----------|---------------|--------------|-----------------|-------|
----------|---------------|--------------|-----------------|-------|
------2---|---------------|--2-1-----2---|-2/4-4/7-6-6-6-4-|-4-4-4-|
--4-4---0-|-0-2-4-2-2-----|------4-4---0-|-----------------|-------|
----------|-----------4-2-|-2------------|-----------------|-------|


C#m                 A5
medio libre medio atada

Nunca quise ser esclava
   E               B5
y hoy siento que pierdo.
C#m                   A5
Como no mire en tus ojos
                      E
eso no me lo perdono, no
           B5
quiero gritar
 C#m     A5               E            B5
Estoy herida y casi sin vida y en libertad
C#m                    A5
donde voy a ir si no puedo más
E        B5
donde esta.

C#m            A5
Todo lo que tengo lo pierdo
 E             B5             C#m  A5
voy y vengo y no me detengo a mirar
E         B5
a quien Me mira de verdad

Todo lo que tengo lo pierdo
voy y vengo y no me detengo a mirar
a quien le mira de verdad.

----------|---------------|--------------|-------------------|-------|
----------|---------------|--------------|-------------------|-------|
----------|---------------|--------------|-------------------|-------|
------2---|---------------|--2-1-----2---|-2/4-4/7-6-6-6/7-4-|-4-4-4-|
--4-4---0-|-0-2-4-2-2-----|------4-4---0-|-------------------|-------|
----------|-----------4-2-|-2------------|-------------------|-------|


C#m               A5                        E                B5
Voy abandonarte y no a dejarte amarte sobre mi caerá una condena
C#m                   A5            E           B5
una rebelion, un espiritu y una ilusion para seguir
  C#m       A5 E           B5
por un camino, un ultimo adios
C#m                   A5         E    B5
pensando en tus ojos voy a vivir, mi amor.


Todo lo que tengo lo pierdo
voy y vengo y no me detengo a mirar
a quien le mira.
Todo lo que tengo lo pierdo
voy y vengo y no me detengo a mirar
a quien le mira de verdad,
a quien le mira de verdad,
a quien le mira de verdad...


Todo lo que tengo lo pierdo
voy y vengo y no me detengo a mirar
a quien le mira.
Todo lo que tengo lo pierdo
voy y vengo y no me detengo a mirar
a quien le mira de verdad.


Como no mire en tus ojos
eso no me lo perdono, no...
Como no mire en tus ojos
eso no me lo perdono, no...
Como no mire en tus ojos
eso no me lo perdono, no

BUE..ESPERO Q ALLA ESTADO BIEN..LES DEJO MI MAIL:
 niko_tens_92@ adioss!
Suggest correction
Give kudos to tab author, rate the tab!
1 2 3 4 5
comments
print report bad tab
guest
You may want to rate the tab now too:
select rating
Wanna post a correction for this tab? Suggest correction