Oops, an error
Loading. Please wait.

Vuelve Tab

10 views 1 this week
no commentswrite comment
1 2 3 4 5
3 more votes to show rating
add to favorites
launch autoscroll
font size
0
reset
how to read this tab
guitar tuner
×
Best way to learn
"Vuelve"
Autoscroll
slow
fast
+/-
esc
set tempo
stop
Lo intenté :) Salu2!


Intro:

1)                   2)                   3)
|7774 54-4 7774 54-4||7774 54-4 7774 54-4||---- ---- ---- ----|
|---- --7- ---- --7-||---- --7- ---- --7-||---- ---- ---- ----|
|---- ---- ---- ----||---- ---- ---- ----||--1- 2--- 4--- 6---|
|---- ---- ---- ----||---- ---- ---- ----||24-2 ---- ---- ----|
|---- ---- ---- ----||---- ---- ---- ----||---- ---- ---- ----|
|---- ---- ---- ----||---- ---- ---- ----||---- ---- ---- ----|

4)                   5)                   6)
|---- ---- ---- ----||---- ---- ---- ----||---- ---- ---- ----|
|4540 ---- ---- ----||5420 ---- ---- ----||540- 540- 540- ----|
|---- 2--- 4--- 1---||---- 2--- 4--- 6---||---- ---- ---- ----|
|---- ---- ---- ----||---- ---- ---- ----||---- ---- ---- ----|
|---- ---- ---- ----||---- ---- ---- ----||---- ---- ---- ----|
|---- ---- ---- ----||---- ---- ---- ----||---- ---- ---- ----|


Estribillo x 2:

7)                   8)                   9)
|---- ---- ---- ----||---- ---- ---- ----||---- ---- ---- ----|
|---- ---- --2- ----||---- 2--- ---1 ----||---- ---- ---- ----|
|1--2 ---- --2- --1-||---- 2--- ---2 ----||2--- --1- ---- ----|
|2--2 ---- --2- --2-||---- 2--- ---2 ----||2--- --2- ---- ----|
|x--x ---- --x- --x-||---- x--- ---x ----||x--- --x- ---- ----|
|x--x ---- --x- --x-||---- x--- ---x ----||x--- --x- ---- ----|
|                   ||                   ||                   |
|7-4- 754- 4-5- 7---||54-0 --44 -4-- 44-4||---- 4-0- ---- ----|
|---- ---7 ---- ----||--7- 0--- 7--0 --7-||--77 ---- ---- ----|
|---- ---- ---- ----||---- ---- ---- ----||6--- ---- ---- ----|
|---- ---- ---- ----||---- ---- ---- ----||---- ---- ---- ----|
|---- ---- ---- ----||---- ---- ---- ----||---- ---- ---- ----|
|---- ---- ---- ----||---- ---- ---- ----||---- ---- ---- ----|

Versos:

10)                  11)                  12)
|---- ---- ---- ----||---- ---- ---- ----||---- ---- 2--3 -4--|
|---- ---- 2--- ---1||---- ---- ---2 --1-||---- ---- 3--4 -5--|
|---- ---- 2--- ---2||-1-2 ---- ---2 --2-||-1-- 2--- 4--5 -6--|
|---- ---- 2--- ---2||-2-2 ---- ---2 --2-||-2-- 2--- 4--5 -6--|
|---- ---- x--- ---x||-x-x ---- ---x --x-||-x-- x--- 2--3 -4--|
|---- ---- x--- ---x||-x-x ---- ---x --x-||-x-- x--- 2--3 -4--|
|                   ||                   ||                   |
|-0-4 -0-0 ---4 ----||4--- ---0 0--- --54||--54 7-54 7755 444-|
|0-7- 7-7- 0--- 75--||-45- 044- -754 ----||---- ---- ---- ---7|
|---- ---- --6- ---6||---- ---- ---- -6--||-6-- ---- ---- ----|
|---- ---- ---- ----||---- ---- ---- ----||---- ---- ---- ----|
|---- ---- ---- ----||---- ---- ---- ----||---- ---- ---- ----|
|---- ---- ---- ----||---- ---- ---- ----||---- ---- ---- ----|

13)                  14)                  15)
|---2 ---- -4-- ---3||---- ---- ---- ----||---- ---- ---- ----|
|---3 ---- -5-- ---4||---- ---2 ---1 ----||---- ---- ---- ----|
|---4 ---- -6-- ---5||---- ---2 ---2 --1-||--2- ---- ---- ----|
|---4 ---- -6-- ---5||---- ---2 ---2 --2-||--2- ---- ---- ----|
|---2 ---- -4-- ---3||---- ---x ---x --x-||---- ---- ---- ----|
|---2 ---- -4-- ---3||---- ---x ---x --x-||---- ---- ---- ----|
|                   ||                   ||                   |
|-44- -4-4 -7-- 54-4||---- ---0 ---- --44||--0- ---- ---- ----|
|0--7 ---- ---- --7-||0445 57-- --07 5---||7--- ---- ---- ----|
|---- ---- ---- ----||---- ---- 6--- -6--||---- ---- --12 4---|
|---- ---- ---- ----||---- ---- ---- ----||---- ---0 24-- ----|
|---- ---- ---- ----||---- ---- ---- ----||---- -24- ---- ----|
|---- ---- ---- ----||---- ---- ---- ----||---- ---- ---- ----|

Estribillo x 1:

Solo:

Versos:

Puente x 2:

25)                  26)                  27)
|---- ---- ---- ----||---- ---- ---- ----||---- ---- ---- ----|
|---- -2-- ---- ----||-2-- ---- ---- --2-||---- ---- --2- ----|
|---- -2-- 2--1 ----||-2-- 2--1 ---- --2-||-2-- 1--- --2- ---2|
|---- -2-- 2--2 ----||-2-- 2--2 ---- --2-||-2-- 2--- --2- ---2|
|---- -x-- x--x ----||-x-- x--x ---- --x-||-x-- x--- --x- ---x|
|---- -x-- x--x ----||-x-- x--x ---- --x-||-x-- x--- --x- ---x|
|                   ||                   ||                   |
|7-54 ---- --54 7-54||-55- 44-- -7-5 4-45||4--- ---- 4--- -4--|
|---- 755- 77-- ----||7--7 --75 ---- -7--||-754 54-- --75 ---7|
|---- ---- ---- ----||---- ---- ---- ----||---- --6- ---- ----|
|---- ---- ---- ----||---- ---- ---- ----||---- ---- ---- ----|
|---- ---- ---- ----||---- ---- ---- ----||---- ---- ---- ----|
|---- ---- ---- ----||---- ---- ---- ----||---- ---- ---- ----|

28)
|---- ---- ---- ----|
|---- ---- ---- ----|
|---- 1--- ---- ----|
|---- 2--- ---- ----|
|---- x--- ---- ----|
|---- x--- ---- ----|
|                   |
|--4- ---- ---- ----|
|5--- 75-- ---- ----|
|---- ---- ---- ----|
|---- ---- ---- ----|
|---- ---- ---- ----|
|---- ---- ---- ----|

Estribillo x 1:

Endo:

32)                  33)
|---- ---- ---- ----||---- ---- ---- ----|
|---- ---- ---- ----||4540 ---- ---- ----|
|--1- 2--- 4--- 6---||---- 2--- 4--- 1---|
|24-2 ---- ---- ----||---- ---- ---- ----|
|---- ---- ---- ----||---- ---- ---- ----|
|---- ---- ---- ----||---- ---- ---- ----|

34)                  35)
|---- ---- ---- ----||---- ---- ---- ----|
|5420 ---- ---- ----||540- 540- 540- ----|
|---- 2--- 4--- 6---||---- ---- ---- ----|
|---- ---- ---- ----||---- ---- ---- ----|
|---- ---- ---- ----||---- ---- ---- ----|
|---- ---- ---- ----||---- ---- ---- ----|
Suggest correction
Give kudos to tab author, rate the tab!
1 2 3 4 5
comments
print report bad tab
guest
You may want to rate the tab now too:
select rating
Wanna post a correction for this tab? Suggest correction